~ STRONGER THAN YOU ~

TABLATURAS ~ By Fefe - Tron544

 

Verse/Estrofa:

 

e|---------------------------------------------|
B|---------------------------------------------|
G|--------------------------8--7------7--7--8--|
D|--10--10--10--10--10--10--------10-----------|
A|---------------------------------------------|
E|---------------------------------------------|

 

e|----------------------------------------------|
B|----------------------------------------------|
G|--------------------------8--7----------------|
D|--10--10--10--10--10--10--------10--8------8--|
A|---------------------------------------10-----|
E|----------------------------------------------|

 

e|-----------------------------------------------------|
B|-----------------------------------------------------|
G|--------------------------8--7------7--7--8---10--8--|
D|--10--10--10--10--10--10--------10-------------------|
A|-----------------------------------------------------|
E|---------
--------------------------------------------|

 

e|-----------------------------------------------|
B|---------------------8-----------8-------------|
G|--10--10--8--10--10-----------------10--8--10--|
D|------------------------10--10-----------------|
A|-----------------------------------------------|
E|
-----------------------------------------------|

 


First Pre-Chorus/Primer Pre-Estribillo:

 

e|-------------------------------------------------------------------------------------|
B|----------8--11--11--8----8---------------------8--11--11--8-----------8-------------|
G|-----------------------------10--8--10------------------------------------10--8--10--|
D|--10--10--------------------------------10--10-----------------10--10----------------|
A|-------------------------------------------------------------------------------------|
E|-------------------------------------------------------------------------------------|

 

e|---------------------------------------------------------------------------|
B|----------8--11--11--8-----------------------------------8-------8---------|
G|-------------------------10--8--10--10--8--10--8--10--8-----10------10--8--|
D|--10--10-------------------------------------------------------------------|
A|---------------------------------------------------------------------------|
E|---------------------------------------------------------------------------|

 


First Chorus/Primer Estribillo: x4

 

e|---------------------------------------------------------------------------|
B|-----------8------9-/-11--8-------8----------------------8------9-/-11--8--|
G|--------------10---------------------10--7-/-8--------------10-------------|
D|--10---10---------------------10----------------10---10--------------------|
A|---------------------------------------------------------------------------|
E|---------------------------------------------------------------------------|


 

Bridge/Puente:

 

e|-------------------------------------------------------------------------------------------|
B|---------------------------------8---------------------------------------------------------|
G|--------------7--8---7--7--7-------------10--8--10--10--8--10--8---------------------------|
D|--10--10--10------------------8------10---------------------------10--8--10--8-------------|
A|--------------------------------------------------------------------------------10--8--10--|
E|-------------------------------------------------------------------------------------------|

 

e|--------------------------------------------------------------------------------------------------|
B|-------------------------------------8------------------------------------------------------------|
G|--------------7--8-------7--7--7---------8-/-10--8--10--8--10--8--10--8---------------------------|
D|--10--10--10--------10------------8--------------------------------------10--8--10--8-------------|
A|---------------------------------------------------------------------------------------10--8--10--|
E|--------------------------------------------------------------------------------------------------|

 


Verse/Estrofa:

 

e|------------------------------------------------------------------------------------------|
B|----------------------------------------------------------------------8--7----------------|
G|--------------------------8--7------7--7--8---10--10--10--10--10--10--------10--8------8--|
D|--10--10--10--10--10--10--------10-------------------------------------------------10-----|
A|------------------------------------------------------------------------------------------|
E|------------------------------------------------------------------------------------------|

 

e|--------------------------------------------------------------------------------------------------|
B|------------------------------------------------------------------------8-----------8-------------|
G|--------------------------8--7------7--7--8---10--8--10--10--8--10--10-----------------10--8--10--|
D|--10--10--10--10--10--10--------10-----------------------------------------10--10-----------------|
A|--------------------------------------------------------------------------------------------------|
E|--------------------------------------------------------------------------------------------------|

 


First Pre-Chorus/Primer Pre-Estribillo:

 

e|--------------------------------------------------------------------|
B|----------8--11--8----8-----------------------------------8---------|
G|-------------------------10--8--10---------------------------10--8--|
D|--10--10----------------------------10--10---10---------------------|
A|-------------------------------------------------11--10-------------|
E|--------------------------------------------------------------------|

 

e|------------------------------------------------------------------|
B|-----------8------------------8-------------------------8---------|
G|--------------10--8--------------10--8--7------10--7-------10--8--|
D|--10--10-------------10--10----------------10---------------------|
A|------------------------------------------------------------------|
E|------------------------------------------------------------------|

 

 

First Chorus/Primer Estribillo:

 

  /~~~~~~~~~~~~~~~~~~~~~~~~~~~~~~~~~~~~( REPEAT x2 / REPITE x2 )~~~~~~~~~~~~~~~~~~~~~~~~~~~~~~~~~~~~\
e|---------------------------------------------------------------------------------------------------|
B|-----------8------9-/-11--8-------8----------------------8------9-/-11--8--------------------------|
G|--------------10---------------------10--7-/-8--------------10--------------8--8--6--8--8-/-10--8--|
D|--10---10---------------------10----------------10---10--------------------------------------------|
A|---------------------------------------------------------------------------------------------------|
E|---------------------------------------------------------------------------------------------------|

 

e|-----------------------------------------------------8-----------------------------------------|
B|-----------8------9-/-11--8-------8---------------------11--8---11--8--------------------------|
G|--------------10---------------------10--7-/-8--------------------------8--8--6--8--8-/-10--8--|
D|--10---10---------------------10----------------10---------------------------------------------|
A|-----------------------------------------------------------------------------------------------|
E|-----------------------------------------------------------------------------------------------|

 

e|---------------------------------------------------------------------------|
B|-----------8------9-/-11--8-------8----------------------8------9-/-11--8--|
G|--------------10---------------------10--7-/-8--------------10-------------|
D|--10---10---------------------10----------------10---10--------------------|
A|---------------------------------------------------------------------------|
E|---------------------------------------------------------------------------|

 

 

Stronger Than You - Mémoire
00:00 / 00:00

©2019 by Fefe - Tron544

Sigueme en:

  • YouTube - White Circle
  • Facebook - White Circle
  • Instagram - White Circle
  • Twitter - White Circle
This site was designed with the
.com
website builder. Create your website today.
Start Now