~ STRIKE THE BLOOD ~

TABLATURAS ~ By Fefe - Tron544

 

Intro:

 

GUITAR 1:

 

e|---------------------------------------------|

B|---------------------------------------------|

G|---------------------------------------------|

D|--2------2--2--2--2--2--2--2--2--2--2--2--2--|

A|--2------2--2--2--2--2--2--2--2--2--2--2--2--|

E|--0------0--0--3--0--3--0--0--0--3--0--3--5--|

 

e|--------------------------------------------------------------------------|

B|--------------------------------------------------------------------------|

G|------------------------5--5---4--4--------------------------5--5---7--7--|

D|--2--2--2--2--2--2--2---5--5---4--4----2--2--2--2--2--2--2---5--5---7--7--|

A|--2--2--2--2--2--2--2---3--3---2--2----2--2--2--2--2--2--2---3--3---5--5--|

E|--0--0--3--0--3--0--0------------------0--0--3--0--3--0--0----------------|

 

GUITAR 3:

 

e|------------------------------------12----------------------15--17--17-b--|

B|--15-----12--12--12--12---------12------12--15--12--15--17----------------|

G|--14-b---12--12--12--12---14-b--------------------------------------------|

D|--------------------------------------------------------------------------|

A|--------------------------------------------------------------------------|

E|--------------------------------------------------------------------------|

 

GUITAR 1:

 

e|---------------------------------------------------------------------|

B|---------------------------------------------------------------------|

G|------------------------5--5---4--4----------------------------------|

D|--2--2--2--2--2--2--2---5--5---4--4----2--------------------2--2--2--|

A|--2--2--2--2--2--2--2---3--3---2--2----2--7--5--------------2--2--2--|

E|--0--0--3--0--3--0--0------------------0--------7--6--5--3--0--0--0--|

 

GUITAR 3:

 

e|--17-b---17--18--17--18--17--18--17--18--17--18--17--18--17--18--17--18----------|

B|---------------------------------------------------------------------------18-b--|

G|---------------------------------------------------------------------------------|

D|---------------------------------------------------------------------------------|

A|---------------------------------------------------------------------------------|

E|---------------------------------------------------------------------------------|

 

 

Verse/Estrofa:

 

GUITAR 1:

 

e|------------------------|

B|------------------------|

G|---------5------7----4--|

D|--2------5------7----4--|

A|--2------3------5----2--|

E|--0---------------------|

 

GUITAR 2:

 

e|-------------------------------------------------------------------------------7--------------------|

B|--7--8---------------------7--8------------------8--10--7-----8------------10-----10--8--7----------|

G|-----------------------------------------------------------9------7--7--7---------------------------|

D|--------9--7--9---9--9--9--------9--7--9---9--9-----------------------------------------------9--9--|

A|----------------------------------------------------------------------------------------------------|

E|----------------------------------------------------------------------------------------------------|

 

GUITAR 3:

 

e|--0----0------------------0--------0-------------------------------------|

B|--0-------0------12-(H)------1--------1------3-----0---7--7--7--7--7--7--|

G|--0----------0---12-(H)---------0---------4-----2------7--7--7--7--7--7--|

D|--0--------------12-(H)--------------------------------7--7--7--7--7--7--|

A|-------------------------------------------------------------------------|

E|-------------------------------------------------------------------------|

 

GUITAR 1:

 

e|-----------------------------------------------------------------------------|

B|-----------------------------------------------------------------------------|

G|----------------------------------------------------------------3--3---------|

D|--2--x--x--x--x--x--2--x--x--x--x--3--3--3---2--x--x--x--x--x---3--3---3--3--|

A|--2--x--x--x--x--x--2--x--x--x--x--3--3--3---2--x--x--x--x--x---1--1---3--3--|

E|--0--x--x--x--x--x--0--x--x--x--x--1--1--1---0--x--x--x--x--x----------1--1--|

 

GUITAR 2:

 

e|----------------------------------------------------|

B|--7--8---------------------7--8---------------------|

G|----------------------------------------------------|

D|--------9--7--9---9--9--9--------9--7--9---9--9--9--|

A|----------------------------------------------------|

E|----------------------------------------------------|

 

GUITAR 3:

 

e|-----------------------------------------------------------------------------|

B|-----------------------------------------------------------------------------|

G|----------------------------------------------------------------3--3---------|

D|--2--x--x--x--x--x--2--x--x--x--x--3--3--3---2--x--x--x--x--x---3--3---3--3--|

A|--2--x--x--x--x--x--2--x--x--x--x--3--3--3---2--x--x--x--x--x---1--1---3--3--|

E|--0--x--x--x--x--x--0--x--x--x--x--1--1--1---0--x--x--x--x--x----------1--1--|

 

GUITAR 1:

 

e|-------------------------------------------------------------------------------------------|

B|-------------------------------------------------------------------------------------------|

G|--5--x--x--x--x--x--5--x--x--5--x--x--x--x--x---7--x--x--x--x--x---4--x--x--4--x--x--4--4--|

D|--5--x--x--x--x--x--5--x--x--5--x--x--x--x--x---7--x--x--x--x--x---4--x--x--4--x--x--4--4--|

A|--3--x--x--x--x--x--3--x--x--3--x--x--x--x--x---5--x--x--x--x--x---2--x--x--2--x--x--2--2--|

E|-------------------------------------------------------------------------------------------|

 

GUITAR 2:

 

e|--------------------------------7--------------------|

B|--8--10--7-----8------------10-----10--8--7----------|

G|------------9------7--7--7---------------------------|

D|-----------------------------------------------9--9--|

A|-----------------------------------------------------|

E|-----------------------------------------------------|

 

GUITAR 3:

 

e|-----------------------------------------------------------------------------------------|

B|--5--5--5--5--5--5--5---7--7--7---8--8--8---10---8--8--8--8--8--8---7--x--7--x--7--x--7--|

G|--------------------------------------------------------------------7--x--7--x--7--x--7--|

D|--2--2--2--2--2--2--2---4--4--4---5--5--5---7----5--5--5--5--5--5------------------------|

A|-----------------------------------------------------------------------------------------|

E|-----------------------------------------------------------------------------------------|

 

 

Pre-Chorus/Pre-Estribillo:

 

GUITAR 1:

 

e|---------------------|

B|---------------------|

G|--5--5---------4-----|

D|--5--5------4--4--2--|

A|--3--3------4--2--2--|

E|------------2-----0--|

 

GUITAR 2:

 

e|-----10-----------------------|

B|--8-------8--7---8--10--7--8--|

G|------------------------------|

D|------------------------------|

A|------------------------------|

E|------------------------------|

 

GUITAR 3:

 

e|-----------------10-----10-------19--19--19-b--19-b--19-b--19-b--19-b--19-b--|

B|--13--13------8------8-------19------17--------------------------------------|

G|--12--12---9-----------------------------------------------------------------|

D|--10--10---------------------------------------------------------------------|

A|-----------------------------------------------------------------------------|

E|-----------------------------------------------------------------------------|

 

GUITAR 1:

 

e|--------------------------------------------------------------------|

B|--------------------------------------------------------------------|

G|-----------------------------------------------------------------4--|

D|--7--x--x--x--x--x--x--x--x--x--x--x--x--x-----------------------4--|

A|--7--x--x--x--x--x--x--x--x--x--x--x--x--x--7--5-----------------2--|

E|--5--x--x--x--x--x--x--x--x--x--x--x--x--x--------7--6--5--3--0-----|

 

GUITAR 2:

 

e|--------------------------------7--|

B|--8--7---7--8--7-----8--10---7-----|

G|------------------9----------------|

D|-----------------------------------|

A|-----------------------------------|

E|-----------------------------------|

 

GUITAR 3:

 

e|----------------------------------------------------------------------|

B|----------------------------------------------------------------------|

G|---------------------------------------------9--7---------------------|

D|--7--x--x--x--x--x--x--x--x--x--x--x--x--x---------9--8--7---------9--|

A|--7--x--x--x--x--x--x--x--x--x--x--x--x--x------------------10--7--9--|

E|--5--x--x--x--x--x--x--x--x--x--x--x--x--x-------------------------7--|

 

 

Chorus/Estrofa:

 

GUITAR 1:

 

e|---------------------------------|

B|---------------------------------|

G|--5--5--5--5--5---7--7--7--7--7--|

D|--5--5--5--5--5---7--7--7--7--7--|

A|--3--3--3--3--3---5--5--5--5--5--|

E|---------------------------------|

 

GUITAR 2:

 

e|-----7----------10-----|

B|--------8--10-------8--|

G|--7--------------------|

D|-----------------------|

A|-----------------------|

E|-----------------------|

 

GUITAR 3:

 

e|--15--15--15--15--15--15--15--15---14--14--14--14--14--14--14--14--|

B|-------------------------------------------------------------------|

G|--12--12--12--12--12--12--12--12---11--11--11--11--11--11--11--11--|

D|-------------------------------------------------------------------|

A|-------------------------------------------------------------------|

E|-------------------------------------------------------------------|

 

GUITAR 1:

 

e|---------------------------------|

B|---------------------------------|

G|------------------4--4--4--4--4--|

D|--2--2--2--2--2---4--4--4--4--4--|

A|--2--2--2--2--2---2--2--2--2--2--|

E|--0--0--0--0--0------------------|

 

GUITAR 2:

 

e|------------------|

B|--7--8------------|

G|---------7--7--7--|

D|------------------|

A|------------------|

E|------------------|

 

GUITAR 3:

 

e|---------------------------------------------------|

B|---------------------------------------------------|

G|--9--9--9--9--9--9--9--9---------------------------|

D|---------------------------7--7--7--7--7--7--7--7--|

A|--7--7--7--7--7--7--7--7---------------------------|

E|---------------------------5--5--5--5--5--5--5--5--|

 

GUITAR 1:

 

e|---------------------------------|

B|---------------------------------|

G|--5--5--5--5--5---7--7--7--7--7--|

D|--5--5--5--5--5---7--7--7--7--7--|

A|--3--3--3--3--3---5--5--5--5--5--|

E|---------------------------------|

 

GUITAR 2:

 

e|-----7----------------|

B|--------10--8--7------|

G|--9----------------7--|

D|----------------------|

A|----------------------|

E|----------------------|

 

GUITAR 3:

 

e|--15--15--15--15--15--15--15--15---14--14--14--14--14--14--14--14--|

B|-------------------------------------------------------------------|

G|--12--12--12--12--12--12--12--12---11--11--11--11--11--11--11--11--|

D|-------------------------------------------------------------------|

A|-------------------------------------------------------------------|

E|-------------------------------------------------------------------|

 

GUITAR 1:

 

e|-------------------------------|

B|-------------------------------|

G|-------------------------------|

D|--2--2---4--4---5--5--5--5--5--|

A|--2--2---4--4---5--5--5--5--5--|

E|--0--0---2--2---3--3--3--3--3--|

 

GUITAR 2:

 

e|------------|

B|------7--8--|

G|--9---------|

D|------------|

A|------------|

E|------------|

 

GUITAR 3:

 

e|--12--12--12--12---14--14--14--14---15--15--15--15--15--15--15--15--|

B|--------------------------------------------------------------------|

G|--9---9---9---9----11--11--11--11---12--12--12--12--12--12--12--12--|

D|--------------------------------------------------------------------|

A|--------------------------------------------------------------------|

E|--------------------------------------------------------------------|

 

GUITAR 1:

 

e|---------------------------------|

B|---------------------------------|

G|--5--5--5--5--5---7--7--7--7--7--|

D|--5--5--5--5--5---7--7--7--7--7--|

A|--3--3--3--3--3---5--5--5--5--5--|

E|---------------------------------|

 

GUITAR 2:

 

e|-----7----------10-----|

B|--------8--10-------8--|

G|--7--------------------|

D|-----------------------|

A|-----------------------|

E|-----------------------|

 

GUITAR 3:

 

e|--15--15--15--15--15--15--15--15---14--14--14--14--14--14--14--14--|

B|-------------------------------------------------------------------|

G|--12--12--12--12--12--12--12--12---11--11--11--11--11--11--11--11--|

D|-------------------------------------------------------------------|

A|-------------------------------------------------------------------|

E|-------------------------------------------------------------------|

 

GUITAR 1:

 

e|---------------------------------|

B|---------------------------------|

G|------------------4--4--4--4--4--|

D|--2--2--2--2--2---4--4--4--4--4--|

A|--2--2--2--2--2---2--2--2--2--2--|

E|--0--0--0--0--0------------------|

 

GUITAR 2:

 

e|------------------|

B|--7--8------------|

G|---------7--7--7--|

D|------------------|

A|------------------|

E|------------------|

 

GUITAR 3:

 

e|---------------------------------------------------|

B|---------------------------------------------------|

G|--9--9--9--9--9--9--9--9---------------------------|

D|---------------------------7--7--7--7--7--7--7--7--|

A|--7--7--7--7--7--7--7--7---------------------------|

E|---------------------------5--5--5--5--5--5--5--5--|

 

GUITAR 1:

 

e|-------------------------------------|

B|-------------------------------------|

G|--5--5--5--5--5---7--7--7--7--7------|

D|--5--5--5--5--5---7--7--7--7--7---2--|

A|--3--3--3--3--3---5--5--5--5--5---2--|

E|----------------------------------0--|

 

GUITAR 2:

 

e|-----7-------------------|

B|--------10--8--7---------|

G|--9----------------7--9--|

D|-------------------------|

A|-------------------------|

E|-------------------------|

 

GUITAR 3:

 

e|--15--15--15--15--15--15--15--15---14--14--14--14--14--14--14--14---12--|

B|------------------------------------------------------------------------|

G|--12--12--12--12--12--12--12--12---11--11--11--11--11--11--11--11---9---|

D|------------------------------------------------------------------------|

A|------------------------------------------------------------------------|

E|------------------------------------------------------------------------|

 

GUITAR 1:

 

e|-----------------------------------------------------------------|

B|-----------------------------------------------------------------|

G|------------------4--4--4--4--4---5--5--5--5--5---7--7--7--7--7--|

D|--2--2--2--2--2---4--4--4--4--4---5--5--5--5--5---7--7--7--7--7--|

A|--2--2--2--2--2---2--2--2--2--2---3--3--3--3--3---5--5--5--5--5--|

E|--0--0--0--0--0--------------------------------------------------|

 

GUITAR 2:

 

e|-----------8--7--7------------8--7--7------------8--7-------------7--|

B|-----8--8---------------8--8---------------8--8--------10--8--10-----|

G|--7------------------7------------------7----------------------------|

D|---------------------------------------------------------------------|

A|---------------------------------------------------------------------|

E|---------------------------------------------------------------------|

 

GUITAR 3:

 

e|----------------------------------------------------------------------------------|

B|--12--12--12----12--12--14--12--14--12---12--12--14--14--14---12--12--14--14--14--|

G|--12--12--12----12--12--14--12--14--12---12--12--14--14--14---12--12--14--14--14--|

D|----------------------------------------------------------------------------------|

A|----------------------------------------------------------------------------------|

E|----------------------------------------------------------------------------------|

 

GUITAR 1:

 

e|-----------------------------------------------------------------|

B|-----------------------------------------------------------------|

G|------------------4--4--4--4--4---5--5--5--5--5---7--7--7--7--7--|

D|--2--2--2--2--2---4--4--4--4--4---5--5--5--5--5---7--7--7--7--7--|

A|--2--2--2--2--2---2--2--2--2--2---3--3--3--3--3---5--5--5--5--5--|

E|--0--0--0--0--0--------------------------------------------------|

 

GUITAR 2:

 

e|-----------8--7--7------------8--7--7------------8--7--7------------|

B|-----8--8---------------8--8---------------8--8---------------8--8--|

G|--7------------------7------------------7------------------7--------|

D|--------------------------------------------------------------------|

A|--------------------------------------------------------------------|

E|--------------------------------------------------------------------|

 

GUITAR 3:

 

e|-------------------------------------------------------------------------------|

B|--12--12--12----12--12--14--12--14--12---12--12--14-b--14-b---15--15---17--17--|

G|--12--12--12----12--12--14--12--14--12---12--12--14-b--14-b---14--14---16--16--|

D|-------------------------------------------------------------------------------|

A|-------------------------------------------------------------------------------|

E|-------------------------------------------------------------------------------|

 

GUITAR 1:

 

e|----------------------------------|

B|----------------------------------|

G|--2--2--2--2--2---4--4--4--4------|

D|--2--2--2--2--2---4--4--4--4---2--|

A|--0--0--0--0--0---2--2--2--2---2--|

E|-------------------------------0--|

 

GUITAR 2:

 

e|--7--10-------------------------7------------|

B|---------8--7--8------8--8--10-----10--8-----|

G|-------------------7----------------------9--|

D|---------------------------------------------|

A|---------------------------------------------|

E|---------------------------------------------|

 

GUITAR 3:

 

e|--15--17-b--17--15-----------------------------|

B|--------------------17--15--12-----------15----|

G|--------------------------------14--12---14-b--|

D|-----------------------------------------------|

A|-----------------------------------------------|

E|-----------------------------------------------|

 

 

Outro:

 

e|--------------------------------------------------------------------------|

B|--------------------------------------------------------------------------|

G|------------------------5--5---4--4--------------------------5--5---7--7--|

D|--2--2--2--2--2--2--2---5--5---4--4----2--2--2--2--2--2--2---5--5---7--7--|

A|--2--2--2--2--2--2--2---3--3---2--2----2--2--2--2--2--2--2---3--3---5--5--|

E|--0--0--3--0--3--0--0------------------0--0--3--0--3--0--0----------------|

 

e|-------------------------------------------------------------------|

B|-------------------------------------------------------------------|

G|------------------------5--5---4--4--------------------------------|

D|--2--2--2--2--2--2--2---5--5---4--4---2--2---4--4---5--5--5--5--5--|

A|--2--2--2--2--2--2--2---3--3---2--2---2--2---4--4---5--5--5--5--5--|

E|--0--0--3--0--3--0--0-----------------0--0---2--2---3--3--3--3--3--|

 

e|-----------------------------------------------------------|-----------------------|

B|-----------------------------------------------------------|-----------------------|

G|-----------------------------------------------------------|-----------------------|

D|--2--2---4--4---5--5--5--5--5---2--2---4--4---5--5---7--7--|--2---2--2---2--2---2--|

A|--2--2---4--4---5--5--5--5--5---2--2---4--4---5--5---7--7--|--2---2--2---2--2---2--|

E|--0--0---2--2---3--3--3--3--3---0--0---2--2---3--3---5--5--|--0---0--0---0--0---0--|

 

 

 

Strike the Blood - Tron544
00:00 / 00:00

©2019 by Fefe - Tron544

Sigueme en:

  • YouTube - White Circle
  • Facebook - White Circle
  • Instagram - White Circle
  • Twitter - White Circle
This site was designed with the
.com
website builder. Create your website today.
Start Now