~ STAND BY ME ~

TABLATURAS ~ By Fefe - Tron544
 

Intro:

 

e|------------------------------------------------------|

B|---------7---------7---------7--9------7--9------7--9-|

G|--8--10-----8--10-----8--10--------10--------10-------|

D|------------------------------------------------------|

A|------------------------------------------------------|

E|------------------------------------------------------|

 

e|---------------------------------------|

B|--11--7--9--11--7--12--7--11--7--9--7--|

G|---------------------------------------|

D|---------------------------------------|

A|---------------------------------------|

E|---------------------------------------|

 

e|--------------------------------------------------------------------------------------------|

B|---------7---------7---------7--9------7--9------7--9--11--7--9--11--7--12--7--11--7--9--7--|

G|--8--10-----8--10-----8--10--------10--------10---------------------------------------------|

D|--------------------------------------------------------------------------------------------|

A|--------------------------------------------------------------------------------------------|

E|--------------------------------------------------------------------------------------------|

 

e|--------------------------16----------16------16--18--16--18------16---------------------------------------|

B|--16--18--19--16--18--19------18--19------18------------------16------16--19--16--18-p-16------16--18--19--|

G|-------------------------------------------------------------------------------------------18--------------|

D|-----------------------------------------------------------------------------------------------------------|

A|-----------------------------------------------------------------------------------------------------------|

E|-----------------------------------------------------------------------------------------------------------|

 

e|--------------------------16----------16------16--18--16--18------16---------------------------------------|

B|--16--18--19--16--18--19------18--19------18------------------16------16--19--16--18-p-16------16--18--19--|

G|-------------------------------------------------------------------------------------------18--------------|

D|-----------------------------------------------------------------------------------------------------------|

A|-----------------------------------------------------------------------------------------------------------|

E|-----------------------------------------------------------------------------------------------------------|

 

e|--#--#--#--#--#---#--#--#---#--#--#--#--#--#--|

B|--#--#--#--#--#---#--#--#---#--#--#--#--#--#--|

G|--#--#--#--#--#---#--#--#---#--#--#--#--#--#--|

D|--#--#--#--#--#---#--#--#---#--#--#--#--#--#--|

A|--#--#--#--#--#---#--#--#---#--#--#--#--#--#--|

E|--#--#--#--#--#---#--#--#---#--#--#--#--#--#--|

 

 

Verse/Estrofa:

 

e|----------------------------------------------------------------------------------------------------------------|

B|----------------------------------------------------------------------------------------------------------------|

G|--8--8--8-------------------4--4--4---4--4--4--4---6--6---8--8--8-------------------4--4--4--4------------------|

D|--8--8--8---4--4--4--4--4---4--4--4---4--4--4--4---6--6---8--8--8---4--4--4--4--4---4--4--4--4---6--6--6--6--6--|

A|--6--6--6---4--4--4--4--4---2--2--2---2--2--2--2---4--4---6--6--6---4--4--4--4--4---2--2--2--2---6--6--6--6--6--|

E|------------2--2--2--2--2-------------------------------------------2--2--2--2--2----------------4--4--4--4--4--|

 

e|------------------------------------------------------------------------------------------------------------|

B|------------------------------------------------------------------------------------------------------------|

G|--8--8--8-------------------4--4--4-------------------8--8--8-----------------------------------------------|

D|--8--8--8---4--4--4--4--4---4--4--4---6--6--6--6--6---8--8--8---4--4--4--4--4---6--6--6--6---8--8--8--8--8--|

A|--6--6--6---4--4--4--4--4---2--2--2---6--6--6--6--6---6--6--6---4--4--4--4--4---6--6--6--6---8--8--8--8--8--|

E|------------2--2--2--2--2-------------4--4--4--4--4-------------2--2--2--2--2---4--4--4--4---6--6--6--6--6--|

 

 

First Pre-Chorus/Primer Pre-Estribillo:

 

e|-----------------------------------------------------------------------|

B|-----------------------------------------------------------------------|

G|--4--4----6--6----8--8---8--8-----------------9--9--9--9---8--8--8--8--|

D|--4--4----6--6----8--8---8--8---6--6---6--6---9--9--9--9---8--8--8--8--|

A|--2--2----4--4----6--6---6--6---6--6---6--6---7--7--7--7---6--6--6--6--|

E|--------------------------------4--4---4--4----------------------------|

 

e|---------------------------------------------------------------------------------|

B|---------------------------------------------------------------------------------|

G|----------------------------------------------------4--4--4--4---6--6--6--6---4--|

D|--6--6--6--6--6--6--6--6---8--8--8--8--8--8--8--8---4--4--4--4---6--6--6--6---4--|

A|--6--6--6--6--6--6--6--6---8--8--8--8--8--8--8--8---2--2--2--2---4--4--4--4---2--|

E|--4--4--4--4--4--4--4--4---6--6--6--6--6--6--6--6--------------------------------|

 

 

Chorus/Estribillo:

 

e|---------------------------------------------------------------------|

B|---------------------------------------------------------------------|

G|--8--8--8--8--8--8--8--8--8--8--8------------------------------------|

D|--8--8--8--8--8--8--8--8--8--8--8---8--8--8--8--8--8--8--8--8--8--8--|

A|--6--6--6--6--6--6--6--6--6--6--6---8--8--8--8--8--8--8--8--8--8--8--|

E|------------------------------------6--6--6--6--6--6--6--6--6--6--6--|

 

e|----------------------------------------------------------------|

B|----------------------------------------------------------------|

G|------------------------------------4--4--4--4--4---6--6--6--6--|

D|--4--4--4--4--4--4--4--4--4--4--4---4--4--4--4--4---6--6--6--6--|

A|--4--4--4--4--4--4--4--4--4--4--4---2--2--2--2--2---4--4--4--4--|

E|--2--2--2--2--2--2--2--2--2--2--2-------------------------------|

 

e|---------------------------------------------------------------------|

B|---------------------------------------------------------------------|

G|--8--8--8--8--8--8--8--8--8--8--8------------------------------------|

D|--8--8--8--8--8--8--8--8--8--8--8---8--8--8--8--8--8--8--8--8--8--8--|

A|--6--6--6--6--6--6--6--6--6--6--6---8--8--8--8--8--8--8--8--8--8--8--|

E|------------------------------------6--6--6--6--6--6--6--6--6--6--6--|

 

e|---------------------------------------------------------------------------|

B|---------------------------------------------------------------------------|

G|------------------------------------(4)-x--4--x--x--4---(6)-x--6--x--x--6--|

D|--4--4--4--4--4--4--4--4--4--4--4---(4)-x--4--x--x--4---(6)-x--6--x--x--6--|

A|--4--4--4--4--4--4--4--4--4--4--4---(2)-x--2--x--x--2---(4)-x--4--x--x--4--|

E|--2--2--2--2--2--2--2--2--2--2--2------------------------------------------|

 

 

Interlude/Intermedio:

 

e|----------------------------------------------------------------------|

B|----------------------------------------------------------------------|

G|--8--6--8---6---8--8--8--8--8--8--8---6---4--4--4--4--4---6--6--6--6--|

D|--8--6--8---6---8--8--8--8--8--8--8---6---4--4--4--4--4---6--6--6--6--|

A|--6--4--6---4---6--6--6--6--6--6--6---4---2--2--2--2--2---4--4--4--4--|

E|----------------------------------------------------------------------|

 

e|--------------------------------------------------------|

B|--------------------------------------------------------|

G|--8--8--8--8--8--8--8---6---4--4--4--4--4---6--6--6--6--|

D|--8--8--8--8--8--8--8---6---4--4--4--4--4---6--6--6--6--|

A|--6--6--6--6--6--6--6---4---2--2--2--2--2---4--4--4--4--|

E|--------------------------------------------------------|

 

e|--#--#--#--#--#---#--#--#--#--#--#--#--#--#--#--|

B|--#--#--#--#--#---#--#--#--#--#--#--#--#--#--#--|

G|--#--#--#--#--#---#--#--#--#--#--#--#--#--#--#--|

D|--#--#--#--#--#---#--#--#--#--#--#--#--#--#--#--|

A|--#--#--#--#--#---#--#--#--#--#--#--#--#--#--#--|

E|--#--#--#--#--#---#--#--#--#--#--#--#--#--#--#--|

 

 

Verse/Estrofa:

 

e|----------------------------------------------------------------------------------------------------------------|

B|----------------------------------------------------------------------------------------------------------------|

G|--8--8--8-------------------4--4--4---4--4--4--4---6--6---8--8--8-------------------4--4--4--4------------------|

D|--8--8--8---4--4--4--4--4---4--4--4---4--4--4--4---6--6---8--8--8---4--4--4--4--4---4--4--4--4---6--6--6--6--6--|

A|--6--6--6---4--4--4--4--4---2--2--2---2--2--2--2---4--4---6--6--6---4--4--4--4--4---2--2--2--2---6--6--6--6--6--|

E|------------2--2--2--2--2-------------------------------------------2--2--2--2--2----------------4--4--4--4--4--|

 

e|------------------------------------------------------------------------------------------------------------|

B|------------------------------------------------------------------------------------------------------------|

G|--8--8--8-------------------4--4--4-------------------8--8--8-----------------------------------------------|

D|--8--8--8---4--4--4--4--4---4--4--4---6--6--6--6--6---8--8--8---4--4--4--4--4---6--6--6--6---8--8--8--8--8--|

A|--6--6--6---4--4--4--4--4---2--2--2---6--6--6--6--6---6--6--6---4--4--4--4--4---6--6--6--6---8--8--8--8--8--|

E|------------2--2--2--2--2-------------4--4--4--4--4-------------2--2--2--2--2---4--4--4--4---6--6--6--6--6--|

 

 

First Pre-Chorus/Primer Pre-Estribillo:

 

e|-----------------------------------------------------------------------|

B|-----------------------------------------------------------------------|

G|--4--4----6--6----8--8---8--8-----------------9--9--9--9---8--8--8--8--|

D|--4--4----6--6----8--8---8--8---6--6---6--6---9--9--9--9---8--8--8--8--|

A|--2--2----4--4----6--6---6--6---6--6---6--6---7--7--7--7---6--6--6--6--|

E|--------------------------------4--4---4--4----------------------------|

 

e|--------------------------------------------------------------------------------------------------------------|

B|--------------------------------------------------------------------------------------------------------------|

G|----------------------------------------------------4--4--4--4---6--6--6--6---4----8--8--8--#--#--#--8--8--8--|

D|--6--6--6--6--6--6--6--6---8--8--8--8--8--8--8--8---4--4--4--4---6--6--6--6---4----8--8--8--#--#--#--8--8--6--|

A|--6--6--6--6--6--6--6--6---8--8--8--8--8--8--8--8---2--2--2--2---4--4--4--4---2----6--6--6--#--#--#--6--6--6--|

E|--4--4--4--4--4--4--4--4---6--6--6--6--6--6--6--6-------------------------------------------------------------|

 

 

Chorus/Estribillo:

 

e|---------------------------------------------------------------------|

B|---------------------------------------------------------------------|

G|--8--8--8--8--8--8--8--8--8--8--8------------------------------------|

D|--8--8--8--8--8--8--8--8--8--8--8---8--8--8--8--8--8--8--8--8--8--8--|

A|--6--6--6--6--6--6--6--6--6--6--6---8--8--8--8--8--8--8--8--8--8--8--|

E|------------------------------------6--6--6--6--6--6--6--6--6--6--6--|

 

e|----------------------------------------------------------------|

B|----------------------------------------------------------------|

G|------------------------------------4--4--4--4--4---6--6--6--6--|

D|--4--4--4--4--4--4--4--4--4--4--4---4--4--4--4--4---6--6--6--6--|

A|--4--4--4--4--4--4--4--4--4--4--4---2--2--2--2--2---4--4--4--4--|

E|--2--2--2--2--2--2--2--2--2--2--2-------------------------------|

 

e|---------------------------------------------------------------------|

B|---------------------------------------------------------------------|

G|--8--8--8--8--8--8--8--8--8--8--8------------------------------------|

D|--8--8--8--8--8--8--8--8--8--8--8---8--8--8--8--8--8--8--8--8--8--8--|

A|--6--6--6--6--6--6--6--6--6--6--6---8--8--8--8--8--8--8--8--8--8--8--|

E|------------------------------------6--6--6--6--6--6--6--6--6--6--6--|

 

e|---------------------------------------------------------------------------|

B|---------------------------------------------------------------------------|

G|------------------------------------(4)-x--4--x--x--4---(6)-x--6--x--x--6--|

D|--4--4--4--4--4--4--4--4--4--4--4---(4)-x--4--x--x--4---(6)-x--6--x--x--6--|

A|--4--4--4--4--4--4--4--4--4--4--4---(2)-x--2--x--x--2---(4)-x--4--x--x--4--|

E|--2--2--2--2--2--2--2--2--2--2--2------------------------------------------|

 

 

Solo:

 

e|----------------------------------------------------------------------------------------------------------------|

B|--------11--11-------------------11--11-----------------------11--11--------------------------------------------|

G|--8--8----------8--8------8---8----------8--8-----------8--8----------8--8------8---11-b--11-b--11-b-r--11--11--|

D|----------------------11-----------------------11--11-----------------------11----------------------------------|

A|----------------------------------------------------------------------------------------------------------------|

E|----------------------------------------------------------------------------------------------------------------|

 

e|-------------------------------------------------------------------------------------------------------------|

B|--------11--11-------------------11--11-----------------------11--11-------------------11--11----------------|

G|--8--8----------8--8------8---8----------8--8-----------8--8----------8--8------8---8----------8--8----------|

D|----------------------11-----------------------11--11-----------------------11-----------------------11--11--|

A|-------------------------------------------------------------------------------------------------------------|

E|-------------------------------------------------------------------------------------------------------------|

 

e|-----------------------------------------------------------------------------------------------------|

B|-----------------------------------------------------------------------------------------------------|

G|--------------------------------------------------------------------------------------8--8--8--8--8--|

D|----------------------------------10--10--10--10--10--11--11--11--11--11--11--11--11-----------------|

A|--11--11--11--11--11--11--11--11---------------------------------------------------------------------|

E|-----------------------------------------------------------------------------------------------------|

 

 

Bridge/Puente:

 

e|--------------------------------------------------------------------------------------------------------------|

B|--------------------------------------------------------------------------------------------------------------|

G|--8-------------4-------------4--x--x--x--x--x--x---x--x--x--x--x--x--x--x---6--x--x--x--x--x--6-------8------|

D|--8------8------4------4------4--x--x--x--x--x--x---x--x--x--x--x--x--x--x---6--x--x--x--x--x--6---6---8---8--|

A|--6------8------2------4------2--x--x--x--x--x--x---x--x--x--x--x--x--x--x---4--x--x--x--x--x--4---6---6---8--|

E|---------6-------------2---------------------------------------------------------------------------4-------6--|

 

Last Chorus/Ultimo Estribillo:

 

e|---------------------------------------------------------------------|

B|---------------------------------------------------------------------|

G|--8--8--8--8--8--8--8--8--8--8--8------------------------------------|

D|--8--8--8--8--8--8--8--8--8--8--8---8--8--8--8--8--8--8--8--8--8--8--|

A|--6--6--6--6--6--6--6--6--6--6--6---8--8--8--8--8--8--8--8--8--8--8--|

E|------------------------------------6--6--6--6--6--6--6--6--6--6--6--|

 

e|----------------------------------------------------------------|

B|----------------------------------------------------------------|

G|------------------------------------4--4--4--4--4---6--6--6--6--|

D|--4--4--4--4--4--4--4--4--4--4--4---4--4--4--4--4---6--6--6--6--|

A|--4--4--4--4--4--4--4--4--4--4--4---2--2--2--2--2---4--4--4--4--|

E|--2--2--2--2--2--2--2--2--2--2--2-------------------------------|

 

e|---------------------------------------------------------------------|

B|---------------------------------------------------------------------|

G|--8--8--8--8--8--8--8--8--8--8--8------------------------------------|

D|--8--8--8--8--8--8--8--8--8--8--8---8--8--8--8--8--8--8--8--8--8--8--|

A|--6--6--6--6--6--6--6--6--6--6--6---8--8--8--8--8--8--8--8--8--8--8--|

E|------------------------------------6--6--6--6--6--6--6--6--6--6--6--|

 

e|------------------------------------------------------------------------|

B|------------------------------------------------------------------------|

G|------------------------------------(4)-x--4--x--x--4---(6)-x--6--x--6--|

D|--4--4--4--4--4--4--4--4--4--4--4---(4)-x--4--x--x--4---(6)-x--6--x--6--|

A|--4--4--4--4--4--4--4--4--4--4--4---(2)-x--2--x--x--2---(4)-x--4--x--4--|

E|--2--2--2--2--2--2--2--2--2--2--2---------------------------------------|

 

e|---------------------------------------------------------------------|

B|---------------------------------------------------------------------|

G|--8--8--8--8--8--8--8--8--8--8--8------------------------------------|

D|--8--8--8--8--8--8--8--8--8--8--8---8--8--8--8--8--8--8--8--8--8--8--|

A|--6--6--6--6--6--6--6--6--6--6--6---8--8--8--8--8--8--8--8--8--8--8--|

E|------------------------------------6--6--6--6--6--6--6--6--6--6--6--|

 

e|----------------------------------------------------------------|

B|----------------------------------------------------------------|

G|------------------------------------4--4--4--4--4---6--6--6--6--|

D|--4--4--4--4--4--4--4--4--4--4--4---4--4--4--4--4---6--6--6--6--|

A|--4--4--4--4--4--4--4--4--4--4--4---2--2--2--2--2---4--4--4--4--|

E|--2--2--2--2--2--2--2--2--2--2--2-------------------------------|

 

e|---------------------------------------------------------------------|

B|---------------------------------------------------------------------|

G|--8--8--8--8--8--8--8--8--8--8--8------------------------------------|

D|--8--8--8--8--8--8--8--8--8--8--8---8--8--8--8--8--8--8--8--8--8--8--|

A|--6--6--6--6--6--6--6--6--6--6--6---8--8--8--8--8--8--8--8--8--8--8--|

E|------------------------------------6--6--6--6--6--6--6--6--6--6--6--|

 

e|---------------------------------------------------------------------------|

B|---------------------------------------------------------------------------|

G|------------------------------------(4)-x--4--x--x--4---(6)-x--6--x--x--6--|

D|--4--4--4--4--4--4--4--4--4--4--4---(4)-x--4--x--x--4---(6)-x--6--x--x--6--|

A|--4--4--4--4--4--4--4--4--4--4--4---(2)-x--2--x--x--2---(4)-x--4--x--x--4--|

E|--2--2--2--2--2--2--2--2--2--2--2------------------------------------------|

 

e|-----------------------------------|

B|-----------------------------------|

G|--8--6--8---6--8--6--8---6--8---8--|

D|--8--6--8---6--8--6--8---6--8---8--|

A|--6--4--6---4--6--4--6---4--6---6--|

E|-----------------------------------|

Stand by Me - Tron544
00:00 / 00:00

©2019 by Fefe - Tron544

Sigueme en:

  • YouTube - White Circle
  • Facebook - White Circle
  • Instagram - White Circle
  • Twitter - White Circle
This site was designed with the
.com
website builder. Create your website today.
Start Now