~ SPIDER-MAN ~

TABLATURAS ~ By Fefe - Tron544

 

Intro: x2

 

GUITAR 1:

 

e|---------------------------------------|
B|---------------------------------------|
G|--7--7--7--7--7--7---7--7--7--7--7--7--|
D|--7--7--7--7--7--7---7--7--7--7--7--7--|
A|--5--5--5--5--5--5---5--5--5--5--5--5--|
E|---------------------------------------|

 

BASS:

 

G|--------------------------------------------------|
D|--------4--4--5--5--7--7--------4--4--5--5--7--7--|
A|--5--5--------------------5--5--------------------|
E|--------------------------------------------------|

 


Chorus/Estribillo: x2

 

GUITAR 1:

 

e|-----------------------------------------------------------------------------|
B|-----------------------------------------------------------------------------|
G|--7--7--7--7--7--7---7--7--7--7--7--7---7--7--7--7--7--7---7--7--7--7--7--7--|
D|--7--7--7--7--7--7---7--7--7--7--7--7---7--7--7--7--7--7---7--7--7--7--7--7--|
A|--5--5--5--5--5--5---5--5--5--5--5--5---5--5--5--5--5--5---5--5--5--5--5--5--|
E|-----------------------------------------------------------------------------|

 

GUITAR 2:

 

e|------------------------------------------------|
B|------------------------------------------------|
G|------------------------------------------------|
D|-----4--7---5--4----------4--7--7--7---5--4-----|
A|--5---------------5----5---------------------5--|
E|------------------------------------------------|

 

BASS:

 

G|---------------------------------------------------------------------------------------------------|
D|--------4--4--5--5--7--7--------4--4--5--5--7--7---------4--4--5--5--7--7--------4--4--5--5--7--7--|
A|--5--5--------------------5--5---------------------5--5--------------------5--5--------------------|
E|---------------------------------------------------------------------------------------------------|

 

GUITAR 1:

 

e|-----------------------------------------------------------------------------|
B|--8--8--8--8--8--8---8--8--8--8--8--8----------------------------------------|
G|--7--7--7--7--7--7---7--7--7--7--7--7---7--7--7--7--7--7---7--7--7--7--7--7--|
D|--5--5--5--5--5--5---5--5--5--5--5--5---7--7--7--7--7--7---7--7--7--7--7--7--|
A|----------------------------------------5--5--5--5--5--5---5--5--5--5--5--5--|
E|-----------------------------------------------------------------------------|

 

GUITAR 2:

 

e|------------------------------------------|
B|------------------------------------------|
G|-----4--7---5--4--------------------------|
D|--5---------------5-------4--7---5--4-----|
A|-----------------------5---------------5--|
E|------------------------------------------|

 

BASS:

 

G|--------4--4--5--5--7--7--------4--4--5--5--7--7---------------------------------------------------|
D|--5--5--------------------5--5---------------------------4--4--5--5--7--7--------4--4--5--5--7--7--|
A|---------------------------------------------------5--5--------------------5--5--------------------|
E|---------------------------------------------------------------------------------------------------|

 

GUITAR 1:

 

e|-----------------------------------------------------------------------------------|
B|--10--10--10--10--10--10---8--8--8--8--8--8----------------------------------------|
G|--9---9---9---9---9---9----7--7--7--7--7--7---7--7--7--7--7--7---7--7--7--7--7--7--|
D|--7---7---7---7---7---7----5--5--5--5--5--5---7--7--7--7--7--7---7--7--7--7--7--7--|
A|----------------------------------------------5--5--5--5--5--5---5--5--5--5--5--5--|
E|-----------------------------------------------------------------------------------|

 

GUITAR 2:

 

e|------------------------------------|
B|------------------------------------|
G|------------------------------------|
D|--5-/-7--5-/-7----5--5--4--5--4-----|
A|---------------------------------5--|
E|------------------------------------|

 

BASS:

 

G|--------6--6--7--7--9--9--------4--4--5--5--7--7---------------------------------------------------|
D|--7--7--------------------5--5---------------------------4--4--5--5--7--7--------4--4--5--5--7--7--|
A|---------------------------------------------------5--5--------------------5--5--------------------|
E|---------------------------------------------------------------------------------------------------|

 


Bridge/Puente:

 

GUITAR 1:

 

e|-----------------------------------------------------------------------------|
B|--6--6--6--6--6--6----------------------8--8--8--8--8--8---------------------|
G|--5--5--5--5--5--5---5--5--5--5--5--5---7--7--7--7--7--7---7--7--7--7--7--7--|
D|--3--3--3--3--3--3---5--5--5--5--5--5---5--5--5--5--5--5---7--7--7--7--7--7--|
A|---------------------3--3--3--3--3--3----------------------5--5--5--5--5--5--|
E|-----------------------------------------------------------------------------|

 

GUITAR 2:

 

e|--------|-------------------------------------------|
B|--------|-------------------------------------------|
G|--------|--5---5------------------------------------|
D|--7--7--|---------8--7---5--4--5---5--4-------7--7--|
A|--------|--------------------------------5----------|
E|--------|-------------------------------------------|

 

BASS:

 

G|---------------------------------------------------------------------------------------------------|
D|--3--3--3--3--3--3--3--3---------------------------5--5--5--5--5--5--5--5--------------------------|
A|--------------------------3--3--3--3--3--3--3--3---------------------------5--5--5--5--5--5--5--5--|
E|---------------------------------------------------------------------------------------------------|

 

GUITAR 1:

 

e|-----------------------------------------------------------------------------------|
B|--6--6--6--6--6--6----------------------8--8--8--8--8--8---10--10--10--10--10--10--|
G|--5--5--5--5--5--5---5--5--5--5--5--5---7--7--7--7--7--7---9---9---9---9---9---9---|
D|--3--3--3--3--3--3---5--5--5--5--5--5---5--5--5--5--5--5---7---7---7---7---7---7---|
A|---------------------3--3--3--3--3--3----------------------------------------------|
E|-----------------------------------------------------------------------------------|

 

GUITAR 2:

 

e|---------------------------------------|
B|---------------------------------------|
G|--5---5--------------------------------|
D|---------8--7---5--4--5---5--4--5-/-7--|
A|---------------------------------------|

E|---------------------------------------|

 

BASS:

 

G|---------------------------------------------------------------------------------------------------|
D|--3--3--3--3--3--3--3--3---------------------------5--5--5--5--5--5--5--5--7--7--7--7--7--7--7--7--|
A|--------------------------3--3--3--3--3--3--3--3---------------------------------------------------|
E|---------------------------------------------------------------------------------------------------|

 


Chorus/Estribillo:

 

GUITAR 1:

 

e|-----------------------------------------------------------------------------|
B|-----------------------------------------------------------------------------|
G|--7--7--7--7--7--7---7--7--7--7--7--7---7--7--7--7--7--7---7--7--7--7--7--7--|
D|--7--7--7--7--7--7---7--7--7--7--7--7---7--7--7--7--7--7---7--7--7--7--7--7--|
A|--5--5--5--5--5--5---5--5--5--5--5--5---5--5--5--5--5--5---5--5--5--5--5--5--|
E|-----------------------------------------------------------------------------|

 

GUITAR 2:

 

e|------------------------------------------------|
B|------------------------------------------------|
G|------------------------------------------------|
D|-----4--7---5--4----------4--7--7--7---5--4-----|
A|--5---------------5----5---------------------5--|
E|------------------------------------------------|

 

BASS:

 

G|---------------------------------------------------------------------------------------------------|
D|--------4--4--5--5--7--7--------4--4--5--5--7--7---------4--4--5--5--7--7--------4--4--5--5--7--7--|
A|--5--5--------------------5--5---------------------5--5--------------------5--5--------------------|
E|---------------------------------------------------------------------------------------------------|

 

GUITAR 1:

 

e|-----------------------------------------------------------------------------|
B|--8--8--8--8--8--8---8--8--8--8--8--8----------------------------------------|
G|--7--7--7--7--7--7---7--7--7--7--7--7---7--7--7--7--7--7---7--7--7--7--7--7--|
D|--5--5--5--5--5--5---5--5--5--5--5--5---7--7--7--7--7--7---7--7--7--7--7--7--|
A|----------------------------------------5--5--5--5--5--5---5--5--5--5--5--5--|
E|-----------------------------------------------------------------------------|

 

GUITAR 2:

 

e|------------------------------------------|
B|------------------------------------------|
G|-----4--7---5--4--------------------------|
D|--5---------------5-------4--7---5--4-----|
A|-----------------------5---------------5--|
E|------------------------------------------|

 

BASS:

 

G|--------4--4--5--5--7--7--------4--4--5--5--7--7---------------------------------------------------|
D|--5--5--------------------5--5---------------------------4--4--5--5--7--7--------4--4--5--5--7--7--|
A|---------------------------------------------------5--5--------------------5--5--------------------|
E|---------------------------------------------------------------------------------------------------|

 

GUITAR 1:

 

e|-----------------------------------------------------------------------------------|
B|--10--10--10--10--10--10---8--8--8--8--8--8----------------------------------------|
G|--9---9---9---9---9---9----7--7--7--7--7--7---7--7--7--7--7--7---7--7--7--7--7--7--|
D|--7---7---7---7---7---7----5--5--5--5--5--5---7--7--7--7--7--7---7--7--7--7--7--7--|
A|----------------------------------------------5--5--5--5--5--5---5--5--5--5--5--5--|
E|-----------------------------------------------------------------------------------|

 

GUITAR 2:

 

e|------------------------------------|
B|------------------------------------|
G|------------------------------------|
D|--5-/-7--5-/-7----5--5--4--5--4-----|
A|---------------------------------5--|
E|------------------------------------|

 

BASS:

 

G|--------6--6--7--7--9--9--------4--4--5--5--7--7---------------------------------------------------|
D|--7--7--------------------5--5---------------------------4--4--5--5--7--7--------4--4--5--5--7--7--|
A|---------------------------------------------------5--5--------------------5--5--------------------|
E|---------------------------------------------------------------------------------------------------|

 


Bridge:

 

GUITAR 1:

 

e|-----------------------------------------------------------------------------|
B|-----------------------------------------------------------------------------|
G|--7--7--7--7--7--7---7--7--7--7--7--7---7--7--7--7--7--7---7--7--7--7--7--7--|
D|--7--7--7--7--7--7---7--7--7--7--7--7---7--7--7--7--7--7---7--7--7--7--7--7--|
A|--5--5--5--5--5--5---5--5--5--5--5--5---5--5--5--5--5--5---5--5--5--5--5--5--|
E|-----------------------------------------------------------------------------|

 

GUITAR 2:

 

e|---------------------------------------------------------------------------------------------------------|
B|--13-/-15--15--15--15--15---13-/-15--15--15--15--15---13-/-15--15--15--15--15---13-/-15--15--15--15--15--|
G|---------------------------------------------------------------------------------------------------------|
D|--10-/-12--12--12--12--12---10-/-12--12--12--12--12---10-/-12--12--12--12--12---10-/-12--12--12--12--12--|
A|---------------------------------------------------------------------------------------------------------|
E|---------------------------------------------------------------------------------------------------------|

 

BASS:

 

G|-----------------------------------------------------------------------------------------------------|
D|-----------------------------------------------------------------------------------------------------|
A|--5--5--5--5--5--5--5--5---5--5--5--5--5--5--5--5---5--5--5--5--5--5--5--5---5--5--5--5--5--5--5--5--|
E|-----------------------------------------------------------------------------------------------------|

 

GUITAR 1:

 

e|-----------------------------------------------------------------------------|
B|--8--8--8--8--8--8---8--8--8--8--8--8----------------------------------------|
G|--7--7--7--7--7--7---7--7--7--7--7--7---7--7--7--7--7--7---7--7--7--7--7--7--|
D|--5--5--5--5--5--5---5--5--5--5--5--5---7--7--7--7--7--7---7--7--7--7--7--7--|
A|----------------------------------------5--5--5--5--5--5---5--5--5--5--5--5--|
E|-----------------------------------------------------------------------------|

 

GUITAR 2:

 

e|--13-/-15--15--15--15--15---15--15--15--15--15--15-----------------------------------------------------|
B|-----------------------------------------------------13-/-15--15--15--15--15---15--15--15--15--15--15--|
G|--10-/-12--12--12--12--12---12--12--12--12--12--12-----------------------------------------------------|
D|-----------------------------------------------------10-/-12--12--12--12--12---12--12--12--12--12--12--|
A|-------------------------------------------------------------------------------------------------------|
E|-------------------------------------------------------------------------------------------------------|

 

BASS:

 

G|-----------------------------------------------------------------------------------------------------|
D|--5--5--5--5--5--5--5--5---5--5--5--5--5--5--5--5----------------------------------------------------|
A|----------------------------------------------------5--5--5--5--5--5--5--5---5--5--5--5--5--5--5--5--|
E|-----------------------------------------------------------------------------------------------------|

 

GUITAR 1:

 

e|-----------------------------------------------------------------------------------|
B|--10--10--10--10--10--10---8--8--8--8--8--8----------------------------------------|
G|--9---9---9---9---9---9----7--7--7--7--7--7---7--7--7--7--7--7---7--7--7--7--7--7--|
D|--7---7---7---7---7---7----5--5--5--5--5--5---7--7--7--7--7--7---7--7--7--7--7--7--|
A|----------------------------------------------5--5--5--5--5--5---5--5--5--5--5--5--|
E|-----------------------------------------------------------------------------------|

 

GUITAR 2:

 

e|--15-/-17--17--17--17--17---13-/-15--15--15--15--15-----------------------------------------------------|
B|------------------------------------------------------13-/-15--15--15--15--15---15--15--15--15--15--15--|
G|--12-/-14--14--14--14--14---10-/-12--12--12--12--12-----------------------------------------------------|
D|------------------------------------------------------10-/-12--12--12--12--12---12--12--12--12--12--12--|
A|--------------------------------------------------------------------------------------------------------|
E|--------------------------------------------------------------------------------------------------------|

 

BASS:

 

G|-----------------------------------------------------------------------------------------------------|
D|--7--7--7--7--7--7--7--7---5--5--5--5--5--5--5--5----------------------------------------------------|
A|----------------------------------------------------5--5--5--5--5--5--5--5---5--5--5--5--5--5--5--5--|
E|-----------------------------------------------------------------------------------------------------|

 


Solo:

 

GUITAR 1:

 

e|-----------------------------------------------------------------------------|
B|-----------------------------------------------------------------------------|
G|--7--7--7--7--7--7---7--7--7--7--7--7---7--7--7--7--7--7---7--7--7--7--7--7--|
D|--7--7--7--7--7--7---7--7--7--7--7--7---7--7--7--7--7--7---7--7--7--7--7--7--|
A|--5--5--5--5--5--5---5--5--5--5--5--5---5--5--5--5--5--5---5--5--5--5--5--5--|
E|-----------------------------------------------------------------------------|

 

GUITAR 2:

 

e|-----------------------------------------------|
B|-----------------------------------------------|
G|-----------------------------------------------|
D|-----3--7---6--3---------3--7--7--7---6--3-----|
A|--5---------------5---5---------------------5--|
E|-----------------------------------------------|

 

BASS:

 

G|-----------------------------------------------------------------------------------------------------|
D|-----------------------------------------------------------------------------------------------------|
A|--5--5--5--5--5--5--5--5---5--5--5--5--5--5--5--5---5--5--5--5--5--5--5--5---5--5--5--5--5--5--5--5--|
E|-----------------------------------------------------------------------------------------------------|

 

GUITAR 1:

 

e|-----------------------------------------------------------------------------|
B|--8--8--8--8--8--8---8--8--8--8--8--8----------------------------------------|
G|--7--7--7--7--7--7---7--7--7--7--7--7---7--7--7--7--7--7---7--7--7--7--7--7--|
D|--5--5--5--5--5--5---5--5--5--5--5--5---7--7--7--7--7--7---7--7--7--7--7--7--|
A|----------------------------------------5--5--5--5--5--5---5--5--5--5--5--5--|
E|-----------------------------------------------------------------------------|

 

GUITAR 2:

 

e|-----------------------------------------|
B|-----------------------------------------|
G|-----------------------------------------|
D|-------------------------3--7---6--3-----|
A|-----1--5---4--1------5---------------5--|
E|--3----
-----------3----------------------|

 

BASS:

 

G|-----------------------------------------------------------------------------------------------------|
D|--5--5--5--5--5--5--5--5---5--5--5--5--5--5--5--5----------------------------------------------------|
A|----------------------------------------------------5--5--5--5--5--5--5--5---5--5--5--5--5--5--5--5--|
E|-----------------------------------------------------------------------------------------------------|

 

GUITAR 1:

 

e|-----------------------------------------------------------------------------------|
B|--10--10--10--10--10--10---8--8--8--8--8--8----------------------------------------|
G|--9---9---9---9---9---9----7--7--7--7--7--7---7--7--7--7--7--7---7--7--7--7--7--7--|
D|--7---7---7---7---7---7----5--5--5--5--5--5---7--7--7--7--7--7---7--7--7--7--7--7--|
A|----------------------------------------------5--5--5--5--5--5---5--5--5--5--5--5--|
E|-----------------------------------------------------------------------------------|

 

GUITAR 2:

 

e|----------------------------------------------------------------------10----10----10----10----10----10----10----|
B|----------------------------------------------------------------------13-b--13-b--13-b--13-b--13-b--13-b--13-b--|
G|----------------------------------------------------------------------------------------------------------------|
D|----------------------------------------------------------------------------------------------------------------|
A|------------------------------------------------------5--5--5--5--5---------------------------------------------|
E|--3-h-5--5--3-h-5--5--5--5--1-h-3--3--1-h-3--3--3--3------------------------------------------------------------|

 

BASS:

 

G|-----------------------------------------------------------------------------------------------------|
D|--7--7--7--7--7--7--7--7---5--5--5--5--5--5--5--5----------------------------------------------------|
A|----------------------------------------------------5--5--5--5--5--5--5--5---5--5--5--5--5--5--5--5--|
E|-----------------------------------------------------------------------------------------------------|

 


Last Chorus/Ultimo Estribillo:

 

GUITAR 1:

 

e|-----------------------------------------------------------------------------|
B|-----------------------------------------------------------------------------|
G|--7--7--7--7--7--7---7--7--7--7--7--7---7--7--7--7--7--7---7--7--7--7--7--7--|
D|--7--7--7--7--7--7---7--7--7--7--7--7---7--7--7--7--7--7---7--7--7--7--7--7--|
A|--5--5--5--5--5--5---5--5--5--5--5--5---5--5--5--5--5--5---5--5--5--5--5--5--|
E|-----------------------------------------------------------------------------|

 

GUITAR 2:

 

e|------------------------------------------------|
B|------------------------------------------------|
G|------------------------------------------------|
D|-----4--7---5--4----------4--7--7--7---5--4-----|
A|--5---------------5----5---------------------5--|
E|------------------------------------------------|

 

BASS:

 

G|---------------------------------------------------------------------------------------------------|
D|--------4--4--5--5--7--7--------4--4--5--5--7--7---------4--4--5--5--7--7--------4--4--5--5--7--7--|
A|--5--5--------------------5--5---------------------5--5--------------------5--5--------------------|
E|---------------------------------------------------------------------------------------------------|

 

GUITAR 1:

 

e|-----------------------------------------------------------------------------|
B|--8--8--8--8--8--8---8--8--8--8--8--8----------------------------------------|
G|--7--7--7--7--7--7---7--7--7--7--7--7---7--7--7--7--7--7---7--7--7--7--7--7--|
D|--5--5--5--5--5--5---5--5--5--5--5--5---7--7--7--7--7--7---7--7--7--7--7--7--|
A|----------------------------------------5--5--5--5--5--5---5--5--5--5--5--5--|
E|-----------------------------------------------------------------------------|

 

GUITAR 2:

 

e|------------------------------------------|
B|------------------------------------------|
G|-----4--7---5--4--------------------------|
D|--5---------------5-------4--7---5--4-----|
A|-----------------------5---------------5--|
E|------------------------------------------|

 

BASS:

 

G|--------4--4--5--5--7--7--------4--4--5--5--7--7---------------------------------------------------|
D|--5--5--------------------5--5---------------------------4--4--5--5--7--7--------4--4--5--5--7--7--|
A|---------------------------------------------------5--5--------------------5--5--------------------|
E|---------------------------------------------------------------------------------------------------|

 

GUITAR 1:

 

e|----------------------------------------------------------------|
B|--10--10--10--10--10--10---8--8--8--8--8--8---------------------|
G|--9---9---9---9---9---9----7--7--7--7--7--7---7--7--7--7--7--7--|
D|--7---7---7---7---7---7----5--5--5--5--5--5---7--7--7--7--7--7--|
A|----------------------------------------------5--5--5--5--5--5--|
E|----------------------------------------------------------------|

 

GUITAR 2:

 

e|---------------------------------------|
B|---------------------------------------|
G|---------------------------------------|
D|--5-/-7--5-/-7----5--5--4--5--4-----3--|
A|---------------------------------5-----|
E|---------------------------------------|

 

BASS:

 

G|--------6--6--7--7--9--9--------4--4--5--5--7--7---------------------------|
D|--7--7--------------------5--5---------------------------4--4--5--5--7--7--|
A|---------------------------------------------------5--5--------------------|
E|---------------------------------------------------------------------------|

 

GUITAR 1:

 

e|--------------------------------------------------------------|-----|
B|--8--8--8--8--8--8----------------------8--8--8--8--8--8------|-----|
G|--7--7--7--7--7--7---7--7--7--7--7--7---7--7--7--7--7--7---7--|--7--|
D|--5--5--5--5--5--5---7--7--7--7--7--7---5--5--5--5--5--5---7--|--7--|
A|---------------------5--5--5--5--5--5----------------------5--|--5--|
E|--------------------------------------------------------------|-----|

 

GUITAR 2:

 

e|------------------------------------------|
B|------------------------------------------|
G|---------------------------------------7--|
D|--5--5--4--5--4-----3---5--5--4--5--7-----|
A|-----------------5------------------------|
E|------------------------------------------|

 

BASS:

 

G|--------4--4--5--5--7--7----------------------------------4--4--5--5--7--7------|-----|
D|--5--5---------------------------4--4--5--5--7--7---5--5------------------------|-----|
A|---------------------------5--5----------------------------------------------5--|--5--|
E|--------------------------------------------------------------------------------|-----|

 

 

 

Spider-Man - Tron544
00:00 / 00:00

©2019 by Fefe - Tron544

Sigueme en:

  • YouTube - White Circle
  • Facebook - White Circle
  • Instagram - White Circle
  • Twitter - White Circle
This site was designed with the
.com
website builder. Create your website today.
Start Now