SPARK-AGAIN

FIRE FORCE

TABS ~ By Fefe (Tron544)

 

Intro:

GUITAR (Lead):

e|------|---------------------12-9---------------------9-9---------|
B|--10--|----10--10-9-10-12-----------9---------9-12---------9-10--|
G|------|------------------------------------11--------------------|
D|------|----------------------------------------------------------|
A|------|----------------------------------------------------------|
E|------|----------------------------------------------------------|

GUITAR (Rhythm):

e|-----|--------------5--5-5--5-5-5-7--7-7--7-7-7---------------9---|
B|--5--|---5-5--5-5-5-7--7-7--7-7-7-9--9-9--9-9-9-9--9-9--9-9-9-10--|
G|--6--|---6-6--6-6-6-7--7-7--7-7-7-9--9-9--9-9-9-7--7-7--7-7-7-11--|
D|--7--|---7-7--7-7-7-7--7-7--7-7-7-9--9-9--9-9-9-9--9-9--9-9-9-11--|
A|--4--|---4-4--4-4-4-5--5-5--5-5-5-7--7-7--7-7-7-8--8-8--8-8-8-9---|
E|-----|------------------------------------------------------------|

GUITAR (Lead):

e|----------------12-9-----------9-10--9-------------9/10--9-----------------|
B|---9-10----9-10----------10-12---------12-10-12------------12-10-12--------|
G|--------11--------------------------------------9-------------------9--11--|
D|---------------------------------------------------------------------------|
A|---------------------------------------------------------------------------|
E|---------------------------------------------------------------------------|

GUITAR (Rhythm):

e|---9--9---9--9--9--2--2-2--2-2-2-5--5-5--5-5-5-7--7-7-7--7--|
B|---10-10--10-10-10-3--3-3--3-3-3-7--7-7--7-7-7-9--9-9-9--9--|
G|---11-11--11-11-11-4--4-4--4-4-4-7--7-7--7-7-7-9--9-9-9--9--|
D|---11-11--11-11-11-4--4-4--4-4-4-7--7-7--7-7-7-9--9-9-9--9--|
A|---9--9---9--9--9--2--2-2--2-2-2-5--5-5--5-5-5-7--7-7-7--7--|
E|------------------------------------------------------------|


Verse/Estrofa:

GUITAR (Vocals):

e|------------------------------------------------------|
B|---------------------------------------7--------------|
G|----9-9-9-9--9--7--6---------9-9-9-9-9----------7--6--|
D|----------------------7--7----------------7--9--------|
A|------------------------------------------------------|
E|------------------------------------------------------|

GUITAR (Rhythm):

e|---------------------------------------------------------------------|
B|--5-x-x-x-x-5-x-7-x-x-x-x-x-7-x-x-5-x-x-x-x-5-x-7-x-x-x-x-x-(9)-x-x--|
G|--6-x-x-x-x-6-x-7-x-x-x-x-x-7-x-x-6-x-x-x-x-6-x-7-x-x-x-x-x-(9)-x-x--|
D|---------------------------------------------------------------------|
A|---------------------------------------------------------------------|
E|---------------------------------------------------------------------|

GUITAR (Vocals):

e|------------------------------------------------|
B|------------------------------------------------|
G|----------6---------6-7-6-----------------------|
D|------7-9---9-----9-------------7-7-----7/9--7--|
A|------------------------------------------------|
E|------------------------------------------------|

GUITAR (Rhythm):

e|-----------------------------------5--5-5--5-5-5-7--7-7--7-7-7--|
B|--10-x-x-x-x-10-x-9-x-x-x-12-x-12--7--7-7--7-7-7-9--9-9--9-9-9--|
G|--11-x-x-x-x-11-x-9-x-x-x-9--x-9---7--7-7--7-7-7-9--9-9--9-9-9--|
D|-----------------------------------7--7-7--7-7-7-9--9-9--9-9-9--|
A|-----------------------------------5--5-5--5-5-5-7--7-7--7-7-7--|
E|----------------------------------------------------------------|

GUITAR (Vocals):

e|------------------------------------------------------|
B|---------------------------------------7--------------|
G|----9-9-9-9--9--7--6---------9-9-9-9-9----------7--6--|
D|----------------------7--7----------------7--9--------|
A|------------------------------------------------------|
E|------------------------------------------------------|

GUITAR (Rhythm):

e|---------------------------------------------------------------------|
B|--5-x-x-x-x-5-x-7-x-x-x-x-x-7-x-x-5-x-x-x-x-5-x-7-x-x-x-x-x-(9)-x-x--|
G|--6-x-x-x-x-6-x-7-x-x-x-x-x-7-x-x-6-x-x-x-x-6-x-7-x-x-x-x-x-(9)-x-x--|
D|---------------------------------------------------------------------|
A|---------------------------------------------------------------------|
E|---------------------------------------------------------------------|

GUITAR (Vocals):

e|---------------------------------------------------|
B|----------------9/10-------------------------------|
G|-----------6-9--------6----------------------------|
D|-----7-7-9---------------9-7-9-\7---------------6--|
A|---------------------------------------------9-----|
E|---------------------------------------------------|

GUITAR (Rhythm):

e|-----------------------------------5--5-5--5-5-5-7--7-7--7-7-7--|
B|--10-x-x-x-x-10-x-9-x-x-x-12-x-12--7--7-7--7-7-7-9--9-9--9-9-9--|
G|--11-x-x-x-x-11-x-9-x-x-x-9--x-9---7--7-7--7-7-7-9--9-9--9-9-9--|
D|-----------------------------------7--7-7--7-7-7-9--9-9--9-9-9--|
A|-----------------------------------5--5-5--5-5-5-7--7-7--7-7-7--|
E|----------------------------------------------------------------|

 


Pre-Chorus/Pre-Estribillo:

GUITAR (Vocals):

e|-----------------------------------------------------|
B|-----------------------------------------------------|
G|-----9-9--------6-------------9-9--------6-6---------|
D|--7-------9--9----7----7-7-6-------9--9---------7-7--|
A|-----------------------------------------------------|
E|-----------------------------------------------------|

GUITAR (Rhythm):

e|--4-4---4-4--5--5-5------7-7---7-7--2--2-2---2-2--|
B|--5-5---5-5--7--7-7------9-9---9-9--2--2-2---2-2--|
G|--6-6---6-6--7--7-7------9-9---9-9--2--2-2---2-2--|
D|--6-6---6-6--7--7-7------9-9---9-9--4--4-4---4-4--|
A|--4-4---4-4--5--5-5------7-7---7-7----------------|
E|--------------------------------------------------|

GUITAR (Vocals):

e|---------------------------------------------------|
B|---------------------------------------------------|
G|-----9-9--------6--------6-7-6---6-----------------|
D|--6-------9--9----7----9-------9----9-7---------6--|
A|---------------------------------------------9-----|
E|---------------------------------------------------|

GUITAR (Rhythm):

e|--4-4---4-4--5--5-5------7-7---7-7--2--2--2--2-2--|
B|--5-5---5-5--7--7-7------9-9---9-9--2--2--2--2-2--|
G|--6-6---6-6--7--7-7------9-9---9-9--2--2--2--2-2--|
D|--6-6---6-6--7--7-7------9-9---9-9--4--4--4--4-4--|
A|--4-4---4-4--5--5-5------7-7---7-7----------------|
E|--------------------------------------------------|

GUITAR (Vocals):

e|-----------------------------------------------------|
B|-----------------------------------------------------|
G|-----9-9--------6-------------9-9--------6-6------6--|
D|--7-------9--9----7----7-7-6-------9--9---------9----|
A|-----------------------------------------------------|
E|-----------------------------------------------------|

GUITAR (Rhythm):

e|--4-4---4-4--5--5-5------7-7---7-7--2--2-2---2-2--|
B|--5-5---5-5--7--7-7------9-9---9-9--2--2-2---2-2--|
G|--6-6---6-6--7--7-7------9-9---9-9--2--2-2---2-2--|
D|--6-6---6-6--7--7-7------9-9---9-9--4--4-4---4-4--|
A|--4-4---4-4--5--5-5------7-7---7-7----------------|
E|--------------------------------------------------|

GUITAR (Vocals):

e|-----------------------------------------------|
B|---------------7----7-9--7-9-10-------9-9------|
G|--7-6-7-9--7-9----9----------------------------|
D|-----------------------------------------------|
A|-----------------------------------------------|
E|-----------------------------------------------|

GUITAR (Rhythm):

e|--2---2---2---2-2-2-2-2--5--5-5--5-5-5-4--4-4------|
B|--3---3---3---3-3-3-3-3--7--7-7--7-7-7-6--6-6------|
G|--4---4---4---4-4-4-4-4--7--7-7--7-7-7-6--6-6------|
D|--4---4---4---4-4-4-4-4--7--7-7--7-7-7-6--6-6------|
A|--2---2---2---2-2-2-2-2--5--5-5--5-5-5-4--4-4------|
E|---------------------------------------------------|

SPARK-AGAIN - Tron544
00:00 / 00:00
DONATE%20BUTTON%20(EN)_edited.png

Chorus/Estribillo:

GUITAR (Vocals):

e|---------------|--------------------------------------------------------------------------------|
B|--12-12-12-12--|----12/14--12-12-12-12---12/14---10-10-10----------------------10/12-10---9-10--|
G|---------------|-------------------------------------------9-9-9-9-----------9------------------|
D|---------------|----------------------------------------------------12-11-12--------------------|
A|---------------|--------------------------------------------------------------------------------|
E|---------------|--------------------------------------------------------------------------------|

GUITAR (Rhythm):

e|--5--|---5-5--5-5-5-5--5-5--5-5-5-2--2-2--2-2-2---------------2--|
B|--7--|---7-7--7-7-7-7--7-7--7-7-7-2--2-2--2-2-2-5--5-5--5-5-5-3--|
G|--7--|---7-7--7-7-7-7--7-7--7-7-7-2--2-2--2-2-2-6--6-6--6-6-6-4--|
D|--7--|---7-7--7-7-7-7--7-7--7-7-7-4--4-4--4-4-4-7--7-7--7-7-7-4--|
A|--5--|---5-5--5-5-5-5--5-5--5-5-5-4--4-4--4-4-4-4--4-4--4-4-4-2--|
E|-----|----------------------------2--2-2--2-2-2------------------|

GUITAR (Vocals):

e|---------------------------------------------------------------------|
B|----9-10---9-10--9--------------------------------------12-12-12-12--|
G|--------------------9--9--------------9-------------13---------------|
D|--------------------------11--9-11-11----11-9-11-11------------------|
A|---------------------------------------------------------------------|
E|---------------------------------------------------------------------|

GUITAR (Rhythm):

e|---2-2--2-2-2-4--4-4--4-4-4-5--5-5--5-5-5-4--4-4--4-4-4-5--|
B|---3-3--3-3-3-5--5-5--5-5-5-7--7-7--7-7-7-6--6-6--6-6-6-7--|
G|---4-4--4-4-4-6--6-6--6-6-6-7--7-7--7-7-7-6--6-6--6-6-6-7--|
D|---4-4--4-4-4-6--6-6--6-6-6-7--7-7--7-7-7-6--6-6--6-6-6-7--|
A|---2-2--2-2-2-4--4-4--4-4-4-5--5-5--5-5-5-4--4-4--4-4-4-5--|
E|-----------------------------------------------------------|

GUITAR (Vocals):

e|--------------------------------------------------------------------------------|
B|----12/14--12-12-12-12---12/14---10-10-10----------------------10/12-10---9-10--|
G|-------------------------------------------9-9-9-9-----------9------------------|
D|----------------------------------------------------12-11-12--------------------|
A|--------------------------------------------------------------------------------|
E|--------------------------------------------------------------------------------|

GUITAR (Rhythm):

e|---5-5--5-5-5-5--5-5--5-5-5-2--2-2--2-2-2---------------2--|
B|---7-7--7-7-7-7--7-7--7-7-7-2--2-2--2-2-2-5--5-5--5-5-5-3--|
G|---7-7--7-7-7-7--7-7--7-7-7-2--2-2--2-2-2-6--6-6--6-6-6-4--|
D|---7-7--7-7-7-7--7-7--7-7-7-4--4-4--4-4-4-7--7-7--7-7-7-4--|
A|---5-5--5-5-5-5--5-5--5-5-5-4--4-4--4-4-4-4--4-4--4-4-4-2--|
E|----------------------------2--2-2--2-2-2------------------|

GUITAR (Vocals):

e|-----------------------------------------------------------------|
B|----9-10---9-10--9-----------------------------------------------|
G|--------------------9--9--------------9-------------10/11--10----|
D|--------------------------11--9-11-11----11-9-11-11--------------|
A|-----------------------------------------------------------------|
E|-----------------------------------------------------------------|

GUITAR (Rhythm):

e|---2-2--2-2-2-4--4-4--4-4-4-5--5-5--5-5-5-4--4-4--4-4-4-4--|
B|---3-3--3-3-3-5--5-5--5-5-5-7--7-7--7-7-7-6--6-6--6-6-6-6--|
G|---4-4--4-4-4-6--6-6--6-6-6-7--7-7--7-7-7-6--6-6--6-6-6-6--|
D|---4-4--4-4-4-6--6-6--6-6-6-7--7-7--7-7-7-6--6-6--6-6-6-6--|
A|---2-2--2-2-2-4--4-4--4-4-4-5--5-5--5-5-5-4--4-4--4-4-4-4--|
E|-----------------------------------------------------------|

GUITAR (Vocals):

e|----------------------------------------------------------------------------|
B|--10-----------------------10-----------------------------------------------|
G|--------9----------7-9-----------9-------------------------------9----------|
D|------------11-11--------------------11-11--9-7-----9/11----9---------6--7--|
A|----------------------------------------------------------------------------|
E|----------------------------------------------------------------------------|

GUITAR (Rhythm):

e|--5----5--5-5--7-7--7--7-7-9-----9---9--9---9--9---9---9--9--5----5--5-5-7--------|
B|--7----7--7-7--9-9--9--9-9-10----10--10-10--10-10--10--10-10-7----7--7-7-9--------|
G|--7----7--7-7--9-9--9--9-9-11----11--11-11--11-11--11--11-11-7----7--7-7-9--------|
D|--7----7--7-7--9-9--9--9-9-11----11--11-11--11-11--11--11-11-7----7--7-7-9--------|
A|--5----5--5-5--7-7--7--7-7-9-----9---9--9---9--9---9---9--9--5----5--5-5-7--------|
E|----------------------------------------------------------------------------------|

 


Outro:

GUITAR (Lead):

e|--9/10--|---9-------------9/10--9-----------------|
B|--------|-----12-10-12------------12-10-12--------|
G|--------|--------------9-------------------9--11--|
D|--------|-----------------------------------------|
A|--------|-----------------------------------------|
E|--------|-----------------------------------------|

GUITAR (Rhythm):

e|--5--|---5-5--5-5-5-7--7-7-7--7--9---|
B|--7--|---7-7--7-7-7-9--9-9-9--9--10--|
G|--7--|---7-7--7-7-7-9--9-9-9--9--11--|
D|--7--|---7-7--7-7-7-9--9-9-9--9--11--|
A|--5--|---5-5--5-5-5-7--7-7-7--7--9---|
E|-----|-------------------------------|

©2015 by Fefe - Tron544

Sigueme en:

  • YouTube - White Circle
  • Facebook - White Circle
  • Instagram - White Circle
  • Twitter - White Circle
This site was designed with the
.com
website builder. Create your website today.
Start Now