~ SORAIRO DAYS ~

TABLATURAS ~ By Fefe - Tron544

 

Intro:

 

e|--------------------------------------------------|

B|--------------------------------------------------|

G|--------------------------------------------------|

D|--9--9--11--11--11---9--9--11--11---9--9--11--11--|

A|--9--9--9---9---9----9--9--9---9----9--9--9---9---|

D|--9--9--9---9---9----9--9--9---9----9--9--9---9---|

 

e|------------------------------------------|

B|------------------------------------------|

G|------------------------------------------|

D|--9--9--11--11--11---9--9--11--11---7--7--|

A|--9--9--9---9---9----9--9--9---9----5--5--|

D|--9--9--9---9---9----9--9--9---9----5--5--|

 

e|--------------------------------------------------|------------------------------------------|

B|--------------------------------------------------|------------------------------------------|

G|--------------------------------------------------|------------------------------------------|

D|--9--9--11--11--11---9--9--11--11---9--9--11--11--|--9--9--11--11--11---9--9--11--11---7--7--|

A|--9--9--9---9---9----9--9--9---9----9--9--9---9---|--9--9--9---9---9----9--9--9---9----5--5--|

D|--9--9--9---9---9----9--9--9---9----9--9--9---9---|--9--9--9---9---9----9--9--9---9----5--5--|

 

e|-----------------------------------------|

B|-----------------------------------------|

G|--11--11--11--11--11---11---7--7--7---9--|

D|--11--11--11--11--11---11---7--7--7---9--|

A|--9---9---9---9---9----9----5--5--5---7--|

D|-----------------------------------------|

 

 

Verse/Estrofa:

 

GUITAR 1:

 

e|--------------------------|--------------------------|

B|--------------------------|--------------------------|

G|--7------2-------------4--|--7------2-------------4--|

D|--7------2------4------4--|--7------2------4--4---4--|

A|--5------0------4------2--|--5------0------4--4---2--|

D|----------------4---------|----------------4--4------|

 

GUITAR 2:

 

e|--------------------------------------------------------|-------------------------------------------------|

B|--------------------------------------------------------|-------------------------------------------------|

G|--11--9--9----11--11--9--9----9--7--7-------6--7--9--7--|--11--9--9----11--11--9--9----7--9--7--9--7--11--|

D|-----------------------------------------7--------------|-------------------------------------------------|

A|--------------------------------------------------------|-------------------------------------------------|

D|--------------------------------------------------------|-------------------------------------------------|

 

GUITAR 1:

 

e|--------------------------|--------------------------|

B|--------------------------|--------------------------|

G|--7------2-------------4--|--7------2------4--4---4--|

D|--7------2------4------4--|--7------2------4--4---4--|

A|--5------0------4------2--|--5------0------2--2---2--|

D|----------------4---------|--------------------------|

 

GUITAR 2:

 

e|--------------------------------------------------------|-------------------------------------------------|

B|--------------------------------------------------------|-------------------------------------------------|

G|--11--9--9----11--11--9--9----9--7--7-------6--7--9--7--|--11--9--9----11--11--9--9----7--9--9--7--9--11--|

D|-----------------------------------------7--------------|-------------------------------------------------|

A|--------------------------------------------------------|-------------------------------------------------|

D|--------------------------------------------------------|-------------------------------------------------|

 

 

Pre-Chorus/Pre-Estribillo:

 

GUITAR 1:

 

e|------------|------------|

B|------------|------------|

G|------------|------------|

D|--2------4--|--5------7--|

A|--2------4--|--5------7--|

D|--2------4--|--5------7--|

 

GUITAR 2:

 

e|------------------------------------------------|-----------------------------|

B|------10--10------------------------------------|--10--10---------------------|

G|---------------------------------9--11--12--11--|----------12--11--12--11--9--|

D|--12----------12--12--12--9--12-----------------|-----------------------------|

A|------------------------------------------------|-----------------------------|

D|------------------------------------------------|-----------------------------|

 

GUITAR 1:

 

e|------------|-----|

B|------------|-----|

G|------------|-----|

D|--2------4--|--4--|

A|--2------4--|--5--|

D|--2------4--|--5--|

 

GUITAR 2:

 

e|--------------------------------------------|---------------------|

B|--10--10------------------------------------|---------------------|

G|-----------------------------9--11--12--11--|--9------11--11--12--|

D|----------12--12--12--9--12-----------------|-----12--------------|

A|--------------------------------------------|---------------------|

D|--------------------------------------------|---------------------|

 

 

Chorus/Estribillo:

 

GUITAR 1:

 

e|------------|

B|------------|

G|--4------2--|

D|--4------2--|

A|--2------0--|

D|------------|

 

GUITAR 2:

 

e|--------------------------------------------------------------|

B|------10--------------10----------------10------14-b--14------|

G|----------12--11--12--------12--11--12------11------------11--|

D|--12----------------------------------------------------------|

A|--------------------------------------------------------------|

D|--------------------------------------------------------------|

 

GUITAR 1:

 

e|------------------------|

B|---------------------7--|

G|---------4---4--4----5--|

D|--4------4---4--2----5--|

A|--4------2---2--2----3--|

D|--4---------------------|

 

GUITAR 2:

 

e|-----------------------------------------------------------|

B|----------10--10--10--10--10-------------------------------|

G|--11--12----------------------12--11--9--9---9------9--11--|

D|------------------------------------------------12---------|

A|-----------------------------------------------------------|

D|-----------------------------------------------------------|

 

GUITAR 1:

 

e|------------|

B|------------|

G|--4------2--|

D|--4------2--|

A|--2------0--|

D|------------|

 

GUITAR 2:

 

e|--------------------------------------------------------------|

B|------10--------------10----------------10------14-b--14------|

G|----------12--11--12--------12--11--12------11------------11--|

D|--12----------------------------------------------------------|

A|--------------------------------------------------------------|

D|--------------------------------------------------------------|

 

GUITAR 1:

 

e|------------------------|

B|------------------------|

G|---------4---4--4----5--|

D|--4------4---4--2----5--|

A|--4------2---2--2----3--|

D|--4---------------------|

 

GUITAR 2:

 

e|----------------------------------9--10--9--9------10--|

B|----------10--10--10--10--11-------------------12------|

G|--11--12----------------------11-----------------------|

D|-------------------------------------------------------|

A|-------------------------------------------------------|

D|-------------------------------------------------------|

 

GUITAR 1:

 

e|---------------------------|

B|---------------------------|

G|---------------------------|

D|--5------7--7---7---7---7--|

A|--5------7--7---7---7---7--|

D|--5------7--7---7---7---7--|

 

GUITAR 2:

 

e|-----------------------------------------------------------|

B|--------------10------------------------10-----------------|

G|--12--11--12----------------12--11--12----------9---9--11--|

D|------------------12--12--------------------12-------------|

A|-----------------------------------------------------------|

D|-----------------------------------------------------------|

 

 

Outro:

 

e|--------------------------------------------------|------------------------------------------|

B|--------------------------------------------------|------------------------------------------|

G|--------------------------------------------------|------------------------------------------|

D|--9--9--11--11--11---9--9--11--11---9--9--11--11--|--9--9--11--11--11---9--9--11--11---7--7--|

A|--9--9--9---9---9----9--9--9---9----9--9--9---9---|--9--9--9---9---9----9--9--9---9----5--5--|

D|--9--9--9---9---9----9--9--9---9----9--9--9---9---|--9--9--9---9---9----9--9--9---9----5--5--|

 

e|-----------------------------------------|

B|-----------------------------------------|

G|--11--11--11--11--11---11---7--7--7---9--|

D|--11--11--11--11--11---11---7--7--7---9--|

A|--9---9---9---9---9----9----5--5--5---7--|

D|-----------------------------------------|

 

 

Sorairo Days - Tron544
00:00 / 00:00

©2019 by Fefe - Tron544

Sigueme en:

  • YouTube - White Circle
  • Facebook - White Circle
  • Instagram - White Circle
  • Twitter - White Circle
This site was designed with the
.com
website builder. Create your website today.
Start Now