SONO CHI NO SADAME

JOJO'S BIZARRE ADVENTURE

TABS ~ By Fefe (Tron544)

 

Intro:

GUITAR (Rhythm):

e|--------------------------------|
B|--------------------------------|
G|------------8--7-------------7--|
D|--5-5-5-5-5-8--7--5-5-5-5-5--7--|
A|--5-5-5-5-5-6--5--5-5-5-5-5--5--|
E|--3-3-3-3-3-------3-3-3-3-3-----|

e|-----------------------------------------------------------|
B|-----------------------------------------------------------|
G|-----------------------------------------------------------|
D|-----------------------------------------------------------|
A|--1--------------1---3/4-3--1-------0-1----------1---------|
E|----3--3-1-3-x-x---3----------1-2-3-----3--3-1-3---3-------|


Verse/Estrofa:

GUITAR (Vocals):

e|-----------------------------------------------------|
B|-----------------------------------------------------|
G|--3----------3-2--------3-2---------------------2-3--|
D|----5----3-5-----5----3-----5-3-3/5------------------|
A|-------5------------5--------------------------------|
E|-----------------------------------------------------|

GUITAR (Rhythm):

e|------3---------------------------6-------------------|
B|------3----------3---3---3-------------------6--------|
G|-----------------------------7/8----------------8-----|
D|--5------------5---5---5---5-7/8----------------------|
A|--5--------------------------5/6----------------------|
E|--3---------------------------------------------------|

GUITAR (Vocals):

e|------------------------------------------------------|
B|------------------------------------------------------|
G|--2----------3-2--------7-5-3-2-2/3-------5--------5--|
D|----5----3-5-----5----3--------------------------8----|
A|-------5------------5---------------------------------|
E|------------------------------------------------------|

GUITAR (Rhythm):

e|------3----------6----------------------------------------|
B|------3-------------6-------------------------------------|
G|------------7/8-------8--8---8--8-8--10-x-x-10-x-10-10----|
D|--5---------7/8----------8---8--8-8--10-x-x-10-x-10-10----|
A|--5---------5/6----------6---6--6-6--8--x-x-8--x-8--8-----|
E|--3-------------------------------------------------------|

GUITAR (Vocals):

e|-------------------------------------|
B|-----5h6--5--------------------------|
G|--7---------5-7-5--------------------|
D|------------------7-8-7---5----------|
A|------------------------8---5--------|
E|-------------------------------------|

GUITAR (Rhythm):

e|-----------------------------------|
B|--------5-6------------------------|
G|-----7------7-5-7---------7--------|
D|--5---------------8-7---5-7--------|
A|----------------------8---5--------|
E|-----------------------------------|

GUITAR (Vocals):

e|-----------------------------|
B|-----------------------------|
G|-----------------------------|
D|------------------------5-7--|
A|-----------------------------|
E|-----------------------------|

GUITAR (Rhythm):

e|------------------------------------------|
B|------------------------------------------|
G|--8---7-------8-10--7-----10-10-8-7-------|
D|--8---7-------8-10--7-----10-10-8-7-------|
A|--6---5-------6-8---5-----8--8--6-5-------|
E|------------------------------------------|


Pre-Chorus/Pre-Estribillo:

GUITAR (Vocals):

e|---------------------------------------------------------------|
B|-----6/8--6--4--6---6-8----------------------------6/8---------|
G|------------------------7-5-3-5-3-5-3-5---5-5-3-7--------------|
D|--8-------------------------------------------------------5-7--|
A|---------------------------------------------------------------|
E|---------------------------------------------------------------|

GUITAR (Rhythm):

e|--------------------------------------------------|
B|------------------------------9-------------------|
G|--3--------3/5----5/7----7-b------7-5-4-----------|
D|----------------------------------------5-3-5-----|
A|--------------------------------------------------|
E|--------------------------------------------------|

GUITAR (Vocals):

e|------------------------------------------------------------|
B|-----6/8--6--4--6---6-6h8-----------------------------------|
G|--------------------------7-5-3-3/5-------------------------|
D|--8--------------------------------------------3-3-3-3-3/5--|
A|------------------------------------------------------------|
E|------------------------------------------------------------|

GUITAR (Rhythm):

e|-----------------------------5----------------------|
B|-----------------------------------8----------------|
G|--3--------3/5----5/7----5-7---5-7---5-7-8-10-------|
D|-----------------------------------------8-10-------|
A|-----------------------------------------6-8--------|
E|----------------------------------------------------|

Sono Chi no Sadame - Tron544
00:00 / 00:00
DONATE%20BUTTON%20(EN)_edited.png

Re-Intro:

GUITAR (Rhythm):

e|-----------------------------------------------------------|
B|-----------------------------------------------------------|
G|-----------------------------------------------------------|
D|-----------------------------------------------------------|
A|--1--------------1---3/4-3--1-------0-1----------1---------|
E|----3--3-1-3-x-x---3----------1-2-3-----3--3-1-3---3-------|

 


Chorus/Estribillo:

GUITAR (Vocals):

e|-------|-------------------------------------------------|
B|-------|------------------------------6--4------------5--|
G|-------|----5-----5-7---------5-----5------5/7------7----|
D|--5-7--|--8---7-8-----5-5-7-8---7-8----------------------|
A|-------|-------------------------------------------------|
E|-------|-------------------------------------------------|

GUITAR (Rhythm):

e|--------------------------------------------------------------------------------------|
B|--------------------------------------------------------------------------------------|
G|----------------------------(8)-x-8-x-x-8-(10)-x-10-x-x-10----------------------------|
D|--(5)-x-5-x-x-5-x-x-5-x-x-5-(8)-x-8-x-x-8-(10)-x-10-x-x-10-(5)-x-5-x-x-5-x-x-5-x-x-5--|
A|--(5)-x-5-x-x-5-x-x-5-x-x-5-(6)-x-6-x-x-6-(8)--x-8--x-x-8--(5)-x-5-x-x-5-x-x-5-x-x-5--|
E|--(3)-x-3-x-x-3-x-x-3-x-x-3--------------------------------(3)-x-3-x-x-3-x-x-3-x-x-3--|

GUITAR (Vocals):

e|------------5-------------------|
B|--6-8-5-6-8---6-5-5/6--------5--|
G|---------------------------7----|
D|--------------------------------|
A|--------------------------------|
E|--------------------------------|

GUITAR (Rhythm):

e|---------------------------------------------------------|
B|---------------------------------------------------------|
G|--(7)-x-7-x-x-7-(5)-x-5-x-x-5-(3)-x-3-x-x-3-x-x-3-x-x-3--|
D|--(7)-x-7-x-x-7-(5)-x-5-x-x-5-(3)-x-3-x-x-3-x-x-3-x-x-3--|
A|--(5)-x-5-x-x-5-(3)-x-3-x-x-3-(1)-x-1-x-x-1-x-x-1-x-x-1--|
E|---------------------------------------------------------|

GUITAR (Vocals):

e|------------5-------------------|
B|--6-8-5-6-8---6-5------6/8------|
G|------------------7-------------|
D|--------------------------------|
A|--------------------------------|
E|--------------------------------|

GUITAR (Rhythm):

e|---------------------------------------------------------|
B|---------------------------------------------------------|
G|--(7)-x-7-x-x-7-(5)-x-5-x-x-5----------------------------|
D|--(7)-x-7-x-x-7-(5)-x-5-x-x-5-(5)-x-5-x-x-5-x-x-5-x-x-5--|
A|--(5)-x-5-x-x-5-(3)-x-3-x-x-3-(5)-x-5-x-x-5-x-x-5-x-x-5--|
E|------------------------------(3)-x-3-x-x-3-x-x-3-x-x-3--|

GUITAR (Vocals):

e|--------------------------------------------------|
B|--8-8-6-4-4/6---5-6-5--------5--5/7---------------|
G|-----------------------5--5-----------------------|
D|--------------------------------------------------|
A|--------------------------------------------------|
E|--------------------------------------------------|

GUITAR (Rhythm):

e|---------------------------------------------------------------------------------------|
B|---------------------------------------------------------------------------------------|
G|--(8)-x-8-x-x-8-(7)-x-7-x-x-7-(5)-x-5-x-x-5-x-x-5-x-x-5--------------------------------|
D|--(8)-x-8-x-x-8-(7)-x-7-x-x-7-(5)-x-5-x-x-5-x-x-5-x-x-5--------------------------------|
A|--(6)-x-6-x-x-6-(5)-x-5-x-x-5-(3)-x-3-x-x-3-x-x-3-x-x-3-5-5-5-5-3-3-3-3-1-1-1-1-0------|
E|---------------------------------------------------------------------------------------|

GUITAR (Vocals):

e|--------6--5--------------------------------------|
B|--8--8--------6--6/8--8--------8/10------------8--|
G|--------------------------------------------------|
D|--------------------------------------------------|
A|--------------------------------------------------|
E|--------------------------------------------------|

GUITAR (Rhythm):

e|--------------------------------------------------------------------------------|
B|--------------------------------------------------------------------------------|
G|--------3--2---------------7-----5-----7-8-10-7-8-10-7-----5-----7-8-10-7-8-10--|
D|--5--5--------3--3/5--5------0-0---0-0-----------------0-0---0-0----------------|
A|--------------------------------------------------------------------------------|
E|--------------------------------------------------------------------------------|

 


Outro:

GUITAR (Rhythm):

e|----------------------------------------------------------------|
B|----------------------------------------------------------------|
G|----------------------------------------------------------------|
D|----------------------------------------------------------------|
A|--1--------------1---3/4-3--------1--------------1---3/4--------|
E|----3--3-1-3-x-x---3--------3-1-2---3--3-1-3-x-x---3-----3-1-2--|

e|----------------------------|
B|----------------------------|
G|----------------------------|
D|-----------------------5-5--|
A|---------------------1-5-5--|
E|--3-5-6-2-3-5-1-3-4----3-3--|

©2015 by Fefe - Tron544

Sigueme en:

  • YouTube - White Circle
  • Facebook - White Circle
  • Instagram - White Circle
  • Twitter - White Circle
This site was designed with the
.com
website builder. Create your website today.
Start Now