~ SOLDIER DREAM ~

TABLATURAS ~ By Fefe - Tron544

 

Intro:

GUITAR (Rhythm):

eb|----------------------------------|
Bb|----------------------------------|
Gb|-------------4------5----------7--|
Db|------2------4------5----------7--|
Ab|------2------2------3----------5--|
Eb|--3-2-0---------------------------|

eb|------------------------------------------------------------|
Bb|------------------------------------------------------------|
Gb|------------------4--4-4-x-x-4-x--5--5-5-x-x-5-x-x-5-5-5-7--|
Db|--2--2-2-x-x-2-x--4--4-4-x-x-4-x--5--5-5-x-x-5-x-x-5-5-5-7--|
Ab|--2--2-2-x-x-2-x--2--2-2-x-x-2-x--3--3-3-x-x-3-x-x-3-3-3-5--|
Eb|--0--0-0-x-x-0-x--------------------------------------------|

GUITAR (Lead):

eb|------------------------------------------14-15-15-15-17--|
Bb|--15-b---15-13-12---10-12-12-/-13---15-17-----------------|
Gb|----------------------------------------------------------|
Db|----------------------------------------------------------|
Ab|----------------------------------------------------------|
Eb|----------------------------------------------------------|


Verse/Estrofa:

GUITAR (Vocals):

eb|-----|----------------------------------|
Bb|-----|--8---10-7-8----8--8-7------------|
Gb|-----|------------------------9------7--|
Db|--9--|-----------------------------9----|
Ab|-----|----------------------------------|
Eb|-----|----------------------------------|

GUITAR (Rhythm):

eb|-------------------------------------------------|
Bb|-------------------------------------------------|
Gb|--(9)-x-9-x-x-9-x-9---7---(5)-x-5-x-x-5-x-5---4--|
Db|--(9)-x-9-x-x-9-x-9---7---(5)-x-5-x-x-5-x-5---5--|
Ab|--(7)-x-7-x-x-7-x-7---5---(3)-x-3-x-x-3-x-3---2--|
Eb|-------------------------------------------------|

GUITAR (Vocals):

eb|------------------------------------------------|
Bb|-------8-10-7------------7--8--8-/-10--8-7------|
Gb|--9--------------7-7--9-------------------------|
Db|---------------------------------------------9--|
Ab|------------------------------------------------|
Eb|------------------------------------------------|

GUITAR (Rhythm):

eb|-------------------------------------------------------------------|
Bb|-------------------------------------------------------------------|
Gb|--(2)-x-2-x-x-2--2--(4)-x-4-x-x-4--4--(5)-x-5-x-x-5--5--(7)-x-x-8--|
Db|--(2)-x-2-x-x-2--2--(4)-x-4-x-x-4--4--(5)-x-5-x-x-5--5--(7)-x-x-7--|
Ab|--(0)-x-0-x-x-0--0--(2)-x-2-x-x-2--2--(3)-x-3-x-x-3--3--(5)-x-x-6--|
Eb|-------------------------------------------------------------------|

GUITAR (Vocals):

eb|----------------------------------|
Bb|--8---10-7-8----8--8-7------------|
Gb|------------------------9------7--|
Db|-----------------------------9----|
Ab|----------------------------------|
Eb|----------------------------------|

GUITAR (Rhythm):

eb|-----------------------------------------------------|
Bb|-----------------------------------------------------|
Gb|--(9)-x-9-x-x-9-x-9---7---(5)-x-5-x-x-5-x-5---4-(PH)-|
Db|--(9)-x-9-x-x-9-x-9---7---(5)-x-5-x-x-5-x-5----------|
Ab|--(7)-x-7-x-x-7-x-7---5---(3)-x-3-x-x-3-x-3----------|
Eb|-----------------------------------------------------|

GUITAR (Vocals):

eb|-----------------------------------|
Bb|-------8-10-7-------8--10--7-------|
Gb|--9--------------7------------7-9--|
Db|-----------------------------------|
Ab|-----------------------------------|
Eb|-----------------------------------|

GUITAR (Rhythm):

eb|-------------------------------------------------|
Bb|-------------------------------------------------|
Gb|--(2)-x-2-x-x-2--2--(4)-x-4-x-x-4--4--5---7---9--|
Db|--(2)-x-2-x-x-2--2--(4)-x-4-x-x-4--4--5---7---9--|
Ab|--(0)-x-0-x-x-0--0--(2)-x-2-x-x-2--2--3---5---7--|
Eb|-------------------------------------------------|

 


Pre-Chorus/Pre-Estribillo:

GUITAR (Vocals):

eb|--------------------------------------------|
Bb|---------------7---------7--7-h-8--7--------|
Gb|--7-7-----7--9------9-9--------------9---9--|
Db|-------7------------------------------------|
Ab|--------------------------------------------|
Eb|--------------------------------------------|

GUITAR (Rhythm):

eb|--------------------|
Bb|--------------------|
Gb|--7-7----------9-9--|
Db|--7-7----------9-9--|
Ab|--5-5----------7-7--|
Eb|--------------------|

GUITAR (Vocals):

eb|-----------------------------------|
Bb|-----------------------------7--8--|
Gb|--7--------7-------------9---------|
Db|-----7-7-----9---9-7---------------|
Ab|---------------------10------------|
Eb|-----------------------------------|

GUITAR (Rhythm):

eb|-------------------------------------------|
Bb|-------------------------------------------|
Gb|--7-----------------------2---4---5---7-7--|
Db|--7---4---5---5-5--5-5-5--2---4---5---7-7--|
Ab|--5---5---5---5-5--5-5-5--0---2---3---5-5--|
Eb|------2---3---3-3--3-3-3-------------------|

 


Chorus/Estribillo:

GUITAR (Vocals):

eb|--------------------------------------------|
Bb|-----------8---------7-8--7---8-/-10--7-----|
Gb|--7------7--------9----------------------9--|
Db|------9-------------------------------------|
Ab|--------------------------------------------|
Eb|--------------------------------------------|

GUITAR (Rhythm):

eb|--------------------------------------------------------------|
Bb|--------------------------------------------------------------|
Gb|-----------------4--4-4--4-4-4--5--5-5--5-5-5--7--7-7--7-7-7--|
Db|--5--5-5--5-5-5--5--5-5--5-5-5--5--5-5--5-5-5--7--7-7--7-7-7--|
Ab|--5--5-5--5-5-5--2--2-2--2-2-2--3--3-3--3-3-3--5--5-5--5-5-5--|
Eb|--3--3-3--3-3-3-----------------------------------------------|

GUITAR (Lead):

eb|---------------------|
Bb|--15-b---15-b-15-13--|
Gb|---------------------|
Db|---------------------|
Ab|---------------------|
Eb|---------------------|

GUITAR (Vocals):

eb|---------------------------------------------|
Bb|------------------------------------------7--|
Gb|--9--7-7------7-----------------7-9--7-9-----|
Db|-----------------10-10-9-10-10---------------|
Ab|---------------------------------------------|
Eb|---------------------------------------------|

GUITAR (Rhythm):

eb|-----------------------------------------------------------|
Bb|-----------------------------------------------------------|
Gb|--4--4-4--4-4-4-----------------2--2-2--2-2-2--5--x-5-x-7--|
Db|--4--4-4--4-4-4--2--2-2--2-2-2--2--2-2--2-2-2--5--x-5-x-7--|
Ab|--2--2-2--2-2-2--2--2-2--2-2-2--0--0-0--0-0-0--3--x-3-x-5--|
Eb|-----------------0--0-0--0-0-0-----------------------------|

GUITAR (Lead):

eb|-----------------------------------12-14--12-14-15--14-15--17--|
Bb|--12----12-h-13-p-12-\-10-12----12-----------------------------|
Gb|---------------------------------------------------------------|
Db|---------------------------------------------------------------|
Ab|---------------------------------------------------------------|
Eb|---------------------------------------------------------------|

GUITAR (Vocals):

eb|--------------------------------------------|
Bb|-----------8---------7-8--7---8-/-10--7-----|
Gb|--7------7--------9----------------------9--|
Db|------9-------------------------------------|
Ab|--------------------------------------------|
Eb|--------------------------------------------|

GUITAR (Rhythm):

eb|--------------------------------------------------------------|
Bb|--------------------------------------------------------------|
Gb|-----------------4--4-4--4-4-4--5--5-5--5-5-5--7--7-7--7-7-7--|
Db|--5--5-5--5-5-5--5--5-5--5-5-5--5--5-5--5-5-5--7--7-7--7-7-7--|
Ab|--5--5-5--5-5-5--2--2-2--2-2-2--3--3-3--3-3-3--5--5-5--5-5-5--|
Eb|--3--3-3--3-3-3-----------------------------------------------|

GUITAR (Lead):

eb|--17-b---18-(b)--17-b-r-b------17-(b)-r--15--|
Bb|---------------------------------------------|
Gb|---------------------------------------------|
Db|---------------------------------------------|
Ab|---------------------------------------------|
Eb|---------------------------------------------|

GUITAR (Vocals):

eb|--------------------------------------------------|
Bb|---------------------------------------------7-8--|
Gb|--9--7-7------9------------------7-9--7-9--9------|
Db|-----------------10-10-9-10--10-------------------|
Ab|--------------------------------------------------|
Eb|--------------------------------------------------|

GUITAR (Rhythm):

eb|-----------------------------------------------------------|
Bb|-----------------------------------------------------------|
Gb|--4--4-4--4-4-4-----------------2--2-2--2-2-2--5--x-5-x-7--|
Db|--4--4-4--4-4-4--2--2-2--2-2-2--2--2-2--2-2-2--5--x-5-x-7--|
Ab|--2--2-2--2-2-2--2--2-2--2-2-2--0--0-0--0-0-0--3--x-3-x-5--|
Eb|-----------------0--0-0--0-0-0-----------------------------|

GUITAR (Lead):

eb|--14--------------------------------14-b-r-12---------------------------------|
Bb|------15--------------------------------------15------------------------------|
Gb|----------14-12-11-12-14-14-/-16-----------------14-b-r-12--------------------|
Db|-----------------------------------------------------------14-12--------------|
Ab|-----------------------------------------------------------------14-13-12-10--|
Eb|------------------------------------------------------------------------------|

 


Outro:

eb|----------------------------------------------------------------------|
Bb|----------------------------------------------------------------------|
Gb|------------------4--4-4-x-x-4-x--5--5-5-x-x-x-x-x--x-x-x-x-x---------|
Db|--2--2-2-x-x-2-x--4--4-4-x-x-4-x--5--5-5-x-x-x-x-x--x-x-x-x-x------2--|
Ab|--2--2-2-x-x-2-x--2--2-2-x-x-2-x--3--3-3-x-x-x-x-x--x-x-x-x-x------2--|
Eb|--0--0-0-x-x-0-x-----------------------------------------------3-2-0--|

 

 

Soldier Dream - Tron544
00:00 / 00:00

©2019 by Fefe - Tron544

Sigueme en:

  • YouTube - White Circle
  • Facebook - White Circle
  • Instagram - White Circle
  • Twitter - White Circle
This site was designed with the
.com
website builder. Create your website today.
Start Now