SOBAKASU

RUROUNI KENSHIN

CHORDS ~ By Fefe (Tron544)

 

Chords used/Acordes utilizados:

A: x.0.2.2.2.0  -  A7: x.0.2.0.2.0
Bm: x.2.4.4.3.2
C#: x.4.6.6.6.4  -  C#m: x.4.6.6.5.4
D: x.x.0.2.3.2
E: 0.2.2.1.0.0  -  Esus4: 0.2.2.2.0.0
F: 1.3.3.2.1.1  -  F#: 2.4.4.3.2.2  -  F#m: 2.4.4.2.2.2
G#: 4.6.6.5.4.4

e|------------------------------------------------------|
B|------------------------------------------------------|
G|----2-3---2-3---2-3-2---8-----2-3---2-3---2-3-2---9---|
D|--4-2-3-4-2-3-4-2-3-2-4-8---4-2-3-4-2-3-4-2-3-2-4-9---|
A|--4-----4-----4-------4-----4-----4-----4-------4-----|
E|------------------------------------------------------|

e|---------------------------------------------------------------|
B|---------------------------------------------------17--16--15--|
G|----2-3---2-3---2-3-2---10--10-9-9-8-8-7-7-6-6-5-5-16--15--14--|
D|--4-2-3-4-2-3-4-2-3-2-4-10--10-9-9-8-8-7-7-6-6-5-5-------------|
A|--4-----4-----4-------4----------------------------------------|
E|---------------------------------------------------------------|

 


A              C#                 D
   Daikirai datta sobakasu wo chotto
                   F
   Hitonadeshite tame iki wo hitotsu
C#m               F#m
   Hebi ikkyuu no koi wa migoto ni
D               E
   Kakuzatou to isshoni toketa
A                 C#                    D
   Mae yori mo motto yaseta mune ni chotto
                   F
   Chikutto sasaru toge ga itai
C#m      F#m      D         E       A     A7
   Hoshiuranai mo... Ate ni naranai wa

 


C#m              D  C#m              D
   Motto touku made... Isshoni yuketara nee
Bm       C#m   D        Esus4  E
   Ureshikute... Dore dakede

 


      A              C#      F#m
   Omoi de wa itsumo kirei dakedo
D         C#m      Bm         E
   Sore dake ja onaka ga suku wa
      A            C#       F#m
   Honto wa setsunai yoru nanoni
D        G#        C#m             F#      D    E       A    C#
   Doushite kashira? Ano hito no namida mo omoi dasenai no
   F#m  A7      D   F#   Bm   E   A
   Omoi dasenai no...

DONATE%20BUTTON%20(EN)_edited.png

©2015 by Fefe - Tron544

Sigueme en:

  • YouTube - White Circle
  • Facebook - White Circle
  • Instagram - White Circle
  • Twitter - White Circle
This site was designed with the
.com
website builder. Create your website today.
Start Now