~ SLASH!! ~

TABLATURAS ~ By Fefe - Tron544

 

Intro:

 

e|--------------------------------------------------|

B|------------------------------17------------------|

G|--16--18--19--18--16------19------18------16--16--|

D|----------------------19--------------19----------|

A|--------------------------------------------------|

E|--------------------------------------------------|

 

e|------------------------------------------------------19--|

B|--------------------------17--19--------------------------|

G|--16--18--19--18--16--------------18------16--16----------|

D|----------------------19--------------19------------------|

A|----------------------------------------------------------|

E|----------------------------------------------------------|

 

 

Verse/Estrofa:

 

e|-----------------------|---------------------------------|

B|-----------------------|---------------------------------|

G|-----6--7--7--7--7-----|--7--7--7--7--7------------------|

D|--9-----------------9--|-----------------9--7------9--7--|

A|-----------------------|---------------------------------|

E|-----------------------|---------------------------------|

 

e|-----------------------|--------------------------------------|

B|-----------------------|-------------------------------10-----|

G|-----6--7--7--7--7-----|--7--7--7--7--7--9--7--11----------9--|

D|--9-----------------9--|--------------------------------------|

A|-----------------------|--------------------------------------|

E|-----------------------|--------------------------------------|

 

e|-----------------------|---------------------------------|

B|-----------------------|---------------------------------|

G|-----6--7--7--7--7-----|--7--7--7--7--7------------------|

D|--9-----------------9--|-----------------9--7------9--7--|

A|-----------------------|---------------------------------|

E|-----------------------|---------------------------------|

 

e|----------------------------------------------|

B|----------------------------------------------|

G|--11--9--7--7---------6--7--9--6--------------|

D|-------------------9--------------9--7--7--9--|

A|----------------------------------------------|

E|----------------------------------------------|

 

e|------------------------------|--------------------------------|

B|------------------------------|--------------------------------|

G|--11--------------------------|--11----------------------------|

D|------9--9--9--9--9--9--7--9--|------9--9--9--9--9--12--11--9--|

A|------------------------------|--------------------------------|

E|------------------------------|--------------------------------|

 

e|------------------------------------------|

B|------------------------------------------|

G|--11-------------------------------9--11--|

D|------9--9--9--9--9--9--9--11--12---------|

A|------------------------------------------|

E|------------------------------------------|

 

 

Chorus/Estribillo:

 

e|--------------|------------------------------|--------------|----------------------------------|

B|--------------|------------------------------|--------------|----------------------------------|

G|--------------|------14----------------------|--------------|----------------------------------|

D|--16--16--17--|--17------16--16--17--16--14--|--12--12--14--|--14--16--14--12--14--16--16--14--|

A|--------------|------------------------------|--------------|----------------------------------|

E|--------------|------------------------------|--------------|----------------------------------|

 

e|--------------|----------------------------------|--------------------------------------|

B|--------------|----------------------------------|--------------------------------------|

G|--------------|------14--------------------------|--------------------------------------|

D|--16--16--17--|--17------16--16--17--16--14------|--------------14----------------------|

A|--------------|------------------------------17--|--14--16--17------16--14------14--14--|

E|--------------|----------------------------------|--------------------------17----------|

 

 

Outro:

 

e|--------------------------------------------------------------|

B|--------------------------------------------------------------|

G|--------------------------------------------------------------|

D|--16--16--17------12--12--14------16--16--17------12--12--14--|

A|--------------------------------------------------------------|

E|--------------------------------------------------------------|

 

e|--------------------------------------------|-------------------------------------------------|

B|--------7-----8--7--------------7--7--------|-------------------------------------------------|

G|--7--9-----7--------9--7--7--9--------9--9--|---------8-----9--8----------------8--8----------|

D|--------------------------------------------|--9--11-----9--------11--9--9--11--------11--11--|

A|--------------------------------------------|-------------------------------------------------|

E|--------------------------------------------|-------------------------------------------------|

 

e|--------------------------------------------|-------------------------------------------------------|

B|--------7-----8--7--------------7--7--------|-------------------------------------------------------|

G|--7--9-----7--------9--7--7--9--------9--9--|---------8-----9--8----------------8--8----------------|

D|--------------------------------------------|--9--11-----9--------11--9--9--11--------11--11--9--9--|

A|--------------------------------------------|----------------------------------------------------9--|

E|--------------------------------------------|----------------------------------------------------7--|

Slash!! - Tron544
00:00 / 00:00

©2019 by Fefe - Tron544

Sigueme en:

  • YouTube - White Circle
  • Facebook - White Circle
  • Instagram - White Circle
  • Twitter - White Circle
This site was designed with the
.com
website builder. Create your website today.
Start Now