SIRIUS

KILL LA KILL

TABS ~ By Fefe (Tron544)

 

Intro:

GUITAR (Rhythm):

e|-------------------------------|
B|-------------------------------|
G|-------------------------------|
D|--7--7-7--7-7-7-9--9-9--9-9-9--|
A|--7--7-7--7-7-7-9--9-9--9-9-9--|
E|--5--5-5--5-5-5-7--7-7--7-7-7--|

GUITAR (Lead):

e|---------------------------------------|
B|--12--12-12-12-14-#-12-#-10-#-9--9-10--|
G|------------------#----#----#----------|
D|--9---9--9--9--11-#-9--#-7--#-6--6-7---|
A|---------------------------------------|
E|---------------------------------------|

GUITAR (Rhythm):

e|-------------------------------|
B|-------------------------------|
G|--9--#-#-8--#-#-6--6-6--6-6-6--|
D|--9--#-#-9--#-#-6--6-6--6-6-6--|
A|--7--#-#-6--#-#-4--4-4--4-4-4--|
E|-------------------------------|

GUITAR (Lead):

e|--------------------------------------------|
B|--10/12--12-12-#-9-#-12--12-12-12-12-12-12--|
G|---------------#---#------------------------|
D|--7-/9---9--9--#-6-#-9---9--9--9--9--9--9---|
A|--------------------------------------------|
E|--------------------------------------------|

GUITAR (Rhythm):

e|-------------------------------------------------------|
B|-------------------------------------------------------|
G|-------------------------------------------------------|
D|--4--4-4--4-4-4-6--6-6--6-6-6-7--7--7-7-#-9------------|
A|--4--4-4--4-4-4-6--6-6--6-6-6-7--7--7-7-#-9------------|
E|--2--2-2--2-2-2-4--4-4--4-4-4-5--5--5-5-#-7-------12\--|

GUITAR (Lead):

e|----------------------------------------------------------------|
B|--9/10--10-9-#-10-#-9-#-7-#-5--5-7--9/10-----9-10-16------------|
G|-------------#----#-------#-------------------------------------|
D|--6/7---7--6-#-7--#-6-#-4-#-2--2-4--6/9------6-7--13------------|
A|----------------------------------------------------------------|
E|-----------------------------------------------------------12\--|

 


Verse/Estribillo:

GUITAR (Vocals):

e|-----------------------------------------------------|
B|-------------------------------6--6--9---------------|
G|--6--6-5--6--6/8--8-8-6--8-8-8----------8-8--6-------|
D|-----------------------------------------------------|
A|-----------------------------------------------------|
E|-----------------------------------------------------|

GUITAR (Rhythm):

e|--------------------------------------------------------------|
B|--------------------------------------------------------------|
G|--6--6--#-#-#-8--8-8--#-#-#-#-#-10--10--#-#-#-3--3-3--5--5-6--|
D|--6--6--#-#-#-8--8-8--#-#-#-#-#-10--10--#-#-#-3--3-3----------|
A|--4--4--#-#-#-6--6-6--#-#-#-#-#-8---8---#-#-#-1--1-1--3--3-4--|
E|--------------------------------------------------------------|

GUITAR (Vocals):

e|----------------------------------------------------|
B|--9--9-9-------------------------------6--7-6-------|
G|----------6-6-5--6-8-6------6----6--8---------8-----|
D|--------------------------8----8--------------------|
A|----------------------------------------------------|
E|----------------------------------------------------|

GUITAR (Rhythm):

e|----------------------------------------------------------|
B|----------------------------------------------------------|
G|----------------------3--3-3-3-8--8--8-8-8----------------|
D|--4--4--4-4-4-4-3-3-#-3--3-3-3-8--8--8-8-8-6--6-6-6--6-6--|
A|--4--4--4-4-4-4-3-3-#-1--1-1-1-6--6--6-6-6-6--6-6-6--6-6--|
E|--2--2--2-2-2-2-1-1-#----------------------4--4-4-4--4-4--|

GUITAR (Lead):

e|----------------------------------------|
B|----------------------------------------|
G|-------------------------5--6-5-8--6-5--|
D|----------------------------------------|
A|-------------------------3--4-3-6--4-3--|
E|----------------------------------------|

 


Pre-Chorus/Pre-Chorus:

GUITAR (Vocals):

e|-----------------------------------------8--9--------|
B|--7/9------9/11--9--7-6--7--7-/9------9-------6------|
G|-------------------------------------------------8---|
D|-----------------------------------------------------|
A|-----------------------------------------------------|
E|-----------------------------------------------------|

GUITAR (Rhythm):

e|-----------------------------------------|
B|-----------------------------------------|
G|-----------------------------3-----------|
D|--4--------6--------3--------3-----------|
A|--4--------6--------3--------1-----------|
E|--2--------4--------1---------------12\--|

GUITAR (Lead):

e|----9-8---9-8---9-8---9-8---9-8---9-8---9-8---9-8---9-8-9/11--9-8--|
B|--9-----9-----9-----9-----9-----9-----9-----9-----9----------------|
G|-------------------------------------------------------------------|
D|-------------------------------------------------------------------|
A|-------------------------------------------------------------------|
E|-------------------------------------------------------------------|

GUITAR (Vocals):

e|---------------------------------------------------------------|
B|-----------------9---------10--10-10--10-9---------------------|
G|--6--6-6--5-6-8----8-6---------------------11---11-11-11-9-11--|
D|---------------------------------------------------------------|
A|---------------------------------------------------------------|
E|---------------------------------------------------------------|

GUITAR (Rhythm):

e|-------------------------------------------------------------|
B|-------------------------------------------------------------|
G|-----------------------3--3-3-3-2--2-2--2-2-2----------------|
D|--4--x-x-x-x-x-x-3-3-#-3--3-3-3-2--2-2--2-2-2-4--4-4--4-4-4--|
A|--4--x-x-x-x-x-x-3-3-#-1--1-1-1-0--0-0--0-0-0-4--4-4--4-4-2--|
E|--2--x-x-x-x-x-x-1-1-#------------------------2--2-2--2-2-2--|

GUITAR (Lead):

e|--16--------16--14---13-------12----------14----------|
B|-------14-----------------14-------12----------12-----|
G|------------------------------------------------------|
D|------------------------------------------------------|
A|------------------------------------------------------|
E|------------------------------------------------------|

GUITAR (Vocals):

e|---------------------------------------|
B|--10/12--------------------------------|
G|---------------------------------------|
D|---------------------------------------|
A|---------------------------------------|
E|---------------------------------------|

GUITAR (Rhythm):

e|----------------------------------------------------|
B|----------------------------------------------------|
G|--4-4-4-4-8-8-8-8-11-11-11-11-16-16-16-16-16--------|
D|--4-4-4-4-------------------------------------------|
A|--2-2-2-2-6-6-6-6-9--9--9--9--14-14-14-14-14--------|
E|----------------------------------------------------|

GUITAR (Lead):

e|--12--------12/14--14-14-14-14-14-14-19--------|
B|-----------------------------------------------|
G|-----------------------------------------------|
D|-----------------------------------------------|
A|-----------------------------------------------|
E|-----------------------------------------------|

Sirius - Tron544
00:00 / 00:00
DONATE%20BUTTON%20(EN)_edited.png

Chorus/Estribillo:

GUITAR (Vocals):

e|-----------------------------------------------------------------|
B|--10/12--12-12--10-9-----9-10-9------------------9--------9--12--|
G|---------------------11-----------8--9--8-9--11------8/9---------|
D|-----------------------------------------------------------------|
A|-----------------------------------------------------------------|
E|-----------------------------------------------------------------|

GUITAR (Rhythm):

e|-----------------------------------------------------------|
B|-----------------------------------------------------------|
G|--9--9--9-9-#-8--8-#----------6--6--6-6-#-4--4-#-----------|
D|--9--9--9-9-#-7--7-#-6--6-6-6-6--6--6-6-#-4--4-#-2--2-2-2--|
A|--7--7--7-7-#-6--6-#-6--6-6-6-4--4--4-4-#-2--2-#-2--2-2-2--|
E|---------------------4--4-4-4--------------------0--0-0-0--|

GUITAR (Lead):

e|-------11-12-#-11-#------------------------11-12-#-11-#------------------------|
B|--12-#-------#----#-12-#-10-#-9--#-7--12-#-------#----#-12--12-12-12-12-12-12--|
G|-----#-8--9--#-8--#----#----#----#-------#-8--9--#-8--#------------------------|
D|--9--#--------------9--#-7--#-6--#-4--9--#--------------9---9--9--9--9--9--9---|
A|-------------------------------------------------------------------------------|
E|-------------------------------------------------------------------------------|

GUITAR (Vocals):

e|---------------------11-12--14-------------------------|
B|--12/14-------14-14-------------10/12------------------|
G|----------------------------------------------------9--|
D|-------------------------------------------------------|
A|-------------------------------------------------------|
E|-------------------------------------------------------|

GUITAR (Rhythm):

e|-----------------------------------------------------------|
B|-----------------------------------------------------------|
G|--2--2-2--2-2-2-4--4-4--4-4-4---------------6--6-6--6-6-6--|
D|--2--2-2--2-2-2-4--4-4--4-4-4-6--6-6--6-6-6-6--6-6--6-6-6--|
A|--0--0-0--0-0-0-0--0-0--0-0-0-6--6-6--6-6-6-4--4-4--4-4-4--|
E|------------------------------4--4-4--4-4-4----------------|

GUITAR (Lead):

e|-------11-12-#-11-#-----------------------------11-12-#-11-#-------------------|
B|--12-#-------#----#-12--12-12-12-12-12-12--12-#-------#----#-12-#-10-#-9--9-9--|
G|-----#-8--9--#-8--#---------------------------#-8--9--#-8--#----#----#---------|
D|--9--#--------------9---9--9--9--9--9--9---9--#--------------9--#-7--#-6--6-6--|
A|-------------------------------------------------------------------------------|
E|-------------------------------------------------------------------------------|

GUITAR (Vocals):

e|-----------------------------------------------------------------|
B|--10--9------------------------10/12--12-12--10-9----------------|
G|--------11--9--8--8--9--11--11--------------------11--9----------|
D|-------------------------------------------------------------11--|
A|-----------------------------------------------------------------|
E|-----------------------------------------------------------------|

GUITAR (Rhythm):

e|-----------------------------------------------------------|
B|-----------------------------------------------------------|
G|----------------4--4-4--4-4-4---------------6--6-6--6-6-6--|
D|--4--4-4--4-4-4-4--4-4--4-4-4-6--6-6--6-6-6-6--6-6--6-6-6--|
A|--4--4-4--4-4-4-2--2-2--2-2-2-6--6-6--6-6-6-4--4-4--4-4-4--|
E|--2--2-2--2-2-2---------------4--4-4--4-4-4----------------|

GUITAR (Lead):

e|------------------------------------------------------------------------|
B|------------------------------------------------------------------------|
G|--6-6-6-6-6-6-6-6-6/8--8-8-8-8-8-8-8-8-8-8-8/11--11-11-9-9-9-9-9-9-9-9--|
D|------------------------------------------------------------------------|
A|--4-4-4-4-4-4-4-4-4/6--6-6-6-6-6-6-6-6-6-6-6/9---9--9--7-7-7-7-7-7-7-7--|
E|------------------------------------------------------------------------|

GUITAR (Vocals):

e|----------------------------------------------------|
B|---------------------------9--9-----10-9------------|
G|--9--9-9------9---8/9--11----------------11---------|
D|----------11----------------------------------------|
A|----------------------------------------------------|
E|----------------------------------------------------|

GUITAR (Rhythm):

e|-----------------------------------------------------------|
B|-----------------------------------------------------------|
G|-----------------------------------------------------------|
D|--4--4-4--4-4-4-6--6-6--6-6-6-7--7-7--7-7-7-9--9-9--9-9-9--|
A|--4--4-4--4-4-4-6--6-6--6-6-6-7--7-7--7-7-7-9--9-9--9-9-9--|
E|--2--2-2--2-2-2-4--4-4--4-4-4-5--5-5--5-5-5-7--7-7--7-7-7--|

GUITAR (Lead):

e|-----------------------------------------------------------------------------------------------|
B|--10-10-10-10-10-10-10-10-9-9-9-10-10-10-9-9-9/10--10-10-10-10-10-10-10/12--12-12-12-12-12-12--|
G|-----------------------------------------------------------------------------------------------|
D|--7--7--7--7--7--7--7--7--6-6-6-7--7--7--6-6-6/7---7--7--7--7--7--7--7-/9---9--9--9--9--9--9---|
A|-----------------------------------------------------------------------------------------------|
E|-----------------------------------------------------------------------------------------------|

GUITAR (Vocals):

e|-----------------------------------------------------------------|
B|--10/12--12-12--10-9-----9-10-9------------------9--------9--12--|
G|---------------------11-----------8--9--8-9--11------8/9---------|
D|-----------------------------------------------------------------|
A|-----------------------------------------------------------------|
E|-----------------------------------------------------------------|

GUITAR (Rhythm):

e|-----------------------------------------------------------|
B|-----------------------------------------------------------|
G|--9--9--9-9-#-8--8-#----------6--6--6-6-#-4--4-#-----------|
D|--9--9--9-9-#-7--7-#-6--6-6-6-6--6--6-6-#-4--4-#-2--2-2-2--|
A|--7--7--7-7-#-6--6-#-6--6-6-6-4--4--4-4-#-2--2-#-2--2-2-2--|
E|---------------------4--4-4-4--------------------0--0-0-0--|

GUITAR (Lead):

e|-------11-12-#-11-#------------------------11-12-#-11-#------------------------|
B|--12-#-------#----#-12-#-10-#-9--#-7--12-#-------#----#-12--12-12-12-12-12-12--|
G|-----#-8--9--#-8--#----#----#----#-------#-8--9--#-8--#------------------------|
D|--9--#--------------9--#-7--#-6--#-4--9--#--------------9---9--9--9--9--9--9---|
A|-------------------------------------------------------------------------------|
E|-------------------------------------------------------------------------------|

GUITAR (Vocals):

e|---------------------11-12--14-------------------------|
B|--12/14-------14-14-------------10/12------------------|
G|----------------------------------------------------9--|
D|-------------------------------------------------------|
A|-------------------------------------------------------|
E|-------------------------------------------------------|

GUITAR (Rhythm):

e|-----------------------------------------------------------|
B|-----------------------------------------------------------|
G|--2--2-2--2-2-2-4--4-4--4-4-4---------------6--6-6--6-6-6--|
D|--2--2-2--2-2-2-4--4-4--4-4-4-6--6-6--6-6-6-6--6-6--6-6-6--|
A|--0--0-0--0-0-0-0--0-0--0-0-0-6--6-6--6-6-6-4--4-4--4-4-4--|
E|------------------------------4--4-4--4-4-4----------------|

GUITAR (Lead):

e|-------11-12-#-11-#-----------------------------11-12-#-11-#-------------------|
B|--12-#-------#----#-12--12-12-12-12-12-12--12-#-------#----#-12-#-10-#-9--9-9--|
G|-----#-8--9--#-8--#---------------------------#-8--9--#-8--#----#----#---------|
D|--9--#--------------9---9--9--9--9--9--9---9--#--------------9--#-7--#-6--6-6--|
A|-------------------------------------------------------------------------------|
E|-------------------------------------------------------------------------------|

GUITAR (Vocals):

e|-----------------------------------------------------------------|
B|--10--9------------------------10/12--12-12--10-9----------------|
G|--------11--9--8--8--9--11--11--------------------11--9----------|
D|-------------------------------------------------------------11--|
A|-----------------------------------------------------------------|
E|-----------------------------------------------------------------|

GUITAR (Rhythm):

e|-----------------------------------------------------------|
B|-----------------------------------------------------------|
G|----------------4--4-4--4-4-4---------------6--6-6--6-6-6--|
D|--4--4-4--4-4-4-4--4-4--4-4-4-6--6-6--6-6-6-6--6-6--6-6-6--|
A|--4--4-4--4-4-4-2--2-2--2-2-2-6--6-6--6-6-6-4--4-4--4-4-4--|
E|--2--2-2--2-2-2---------------4--4-4--4-4-4----------------|

GUITAR (Lead):

e|------------------------------------------------------------------------|
B|------------------------------------------------------------------------|
G|--6-6-6-6-6-6-6-6-6/8--8-8-8-8-8-8-8-8-8-8-8/11--11-11-9-9-9-9-9-9-9-9--|
D|------------------------------------------------------------------------|
A|--4-4-4-4-4-4-4-4-4/6--6-6-6-6-6-6-6-6-6-6-6/9---9--9--7-7-7-7-7-7-7-7--|
E|------------------------------------------------------------------------|

GUITAR (Vocals):

e|----------------------------------------------------------|-------------|
B|---------------------------9--9-----10-9-----------10/12--|-------------|
G|--9--9-9------9---8/9--11----------------11-----9---------|--11---9-----|
D|----------11----------------------------------------------|-------------|
A|----------------------------------------------------------|-------------|
E|----------------------------------------------------------|-------------|

GUITAR (Rhythm):

e|-----------------------------------------------------------|-----|
B|-----------------------------------------------------------|-----|
G|-----------------------------------------------------------|-----|
D|--4--4-4--4-4-4-6--6-6--6-6-6-7--7-7--7-7-7-9--9-9--9-9-9--|--2--|
A|--4--4-4--4-4-4-6--6-6--6-6-6-7--7-7--7-7-7-9--9-9--9-9-9--|--2--|
E|--2--2-2--2-2-2-4--4-4--4-4-4-5--5-5--5-5-5-7--7-7--7-7-7--|--0--|

GUITAR (Lead):

e|-----------------------------------------------------------------------------------------------|--12--|
B|--10-10-10-10-10-10-10-10-9-9-9-10-10-10-9-9-9/10--10-10-10-10-10-10-10/12--12-12-12-12-12-12--|------|
G|-----------------------------------------------------------------------------------------------|--9---|
D|--7--7--7--7--7--7--7--7--6-6-6-7--7--7--6-6-6/7---7--7--7--7--7--7--7-/9---9--9--9--9--9--9---|------|
A|-----------------------------------------------------------------------------------------------|------|
E|-----------------------------------------------------------------------------------------------|------|

©2015 by Fefe - Tron544

Sigueme en:

  • YouTube - White Circle
  • Facebook - White Circle
  • Instagram - White Circle
  • Twitter - White Circle
This site was designed with the
.com
website builder. Create your website today.
Start Now