~ SINGING! ~

TABLATURAS ~ By Fefe - Tron544

 

Intro:

 

GUITAR 2:

 

  /~~~~~~~~~~~~~~~~REPEAT~x3~~/~~REPITE~x3~~~~~~~~~~~~~~~~~\

e|--12--12--12--12--12----12--12--12--12--12----12--12--12--|

B|----------------------------------------------------------|

G|--9---9---9---9---9-----9---9---9---9---9-----9---9---9---|

D|----------------------------------------------------------|

A|----------------------------------------------------------|

E|----------------------------------------------------------|

 

GUITAR 1:

 

e|---------------------------------------------|

B|---------------------------------------------|

G|--9--9--9--9--9----9--9--9--9--9----9--9--9--|

D|--9--9--9--9--9----9--9--9--9--9----9--9--9--|

A|--7--7--7--7--7----7--7--7--7--7----7--7--7--|

E|---------------------------------------------|

 

GUITAR 2:

 

e|--12--12--12--12--12----12--12--12--12--12----12--12--|

B|------------------------------------------------------|

G|--9---9---9---9---9-----9---9---9---9---9-----9---9---|

D|------------------------------------------------------|

A|------------------------------------------------------|

E|------------------------------------------------------|

 

GUITAR 1:

 

e|----------------------------------------|

B|----------------------------------------|

G|--5------7------9------5------7------9--|

D|--5------7------9------5------7------9--|

A|--3------5------7------3------5------7--|

E|----------------------------------------|

 

GUITAR 2:

 

         /~~~~~~~REPEAT~x4~~/~~REPITE~x4~~~~~~~~\

e|------|----------------------------------------|

B|------|----------------------------------------|

G|--14--|--12--11--12--12----11--11--11--12--11--|

D|------|----------------------------------------|

A|--12--|--10--9---10--10----9---9---9---10--9---|

E|------|----------------------------------------|

 

 

Verse/Estrofa:

 

GUITAR 2:

  /~~~~REPEAT~x3~/~REPITE~x3~~~~~\

e|--------------------------------|--------------------|

B|--10--8--7--8--7--7----8--7-----|--------------7-----|

G|-----------------------------7--|--------9--9-----9--|

D|--------------------------------|--9--9--------------|

A|--------------------------------|--------------------|

E|--------------------------------|--------------------|

 

GUITAR 1:

 

e|--12*-------|-------------------|

B|-------12*--|-------------------|

G|------------|--5------7------9--|

D|------------|--5------7------9--|

A|------------|--3------5------7--|

E|------------|-------------------|

 

GUITAR 2:

 

e|--------------------------------|------------------------------7--|

B|--10--8--7--8--7--7----8--7-----|--10--8--7--8--7--7----8--10-----|

G|-----------------------------7--|---------------------------------|

D|--------------------------------|---------------------------------|

A|--------------------------------|---------------------------------|

E|--------------------------------|---------------------------------|

 

GUITAR 1:

 

e|-------------------|

B|-------------------|

G|--5------7------9--|

D|--5------7------9--|

A|--3------5------7--|

E|-------------------|

 

GUITAR 2:

 

e|--------------------------------|--------------------|

B|--10--8--7--8--7--7----8--7-----|--------------7-----|

G|-----------------------------7--|--------9--9-----9--|

D|--------------------------------|--9--9--------------|

A|--------------------------------|--------------------|

E|--------------------------------|--------------------|

 

 

Pre-Chorus/Pre-Estribillo:

 

GUITAR 1:

 

e|----------------------------------|--------------------------------------|

B|----------------------------------|--------------------------------------|

G|--5------7------9--9--9--9--7--7--|--4------9------11--11--11--11--9--9--|

D|--5------7------9--9--9--9--7--7--|--4------9------11--11--11--11--9--9--|

A|--3------5------7--7--7--7--5--5--|--2------7------9---9---9---9---7--7--|

E|----------------------------------|--------------------------------------|

 

GUITAR 2:

 

e|--7--7------------------------7------|--------------------------7--8----7--7--|

B|------------10--8--10--8--10-----10--|--7--7------8--10--8--10----------------|

G|-------------------------------------|----------------------------------------|

D|-------------------------------------|----------------------------------------|

A|-------------------------------------|----------------------------------------|

E|-------------------------------------|----------------------------------------|

 

GUITAR 1:

 

e|-------------------------------------|

B|-------------------------------------|

G|--5------7--7--7--7----7--7----7--7--|

D|--5------7--7--7--7----7--7----7--7--|

A|--3------5--5--5--5----5--5----5--5--|

E|-------------------------------------|

 

GUITAR 2:

 

e|--7--7------------------------7----8------|

B|------------10--8--10--8--10----------10--|

G|------------------------------------------|

D|------------------------------------------|

A|------------------------------------------|

E|------------------------------------------|

 

 

Chorus/Estribillo:

 

GUITAR 1:

 

e|------------|-------------|

B|------------|-------------|

G|--5------4--|--9------10--|

D|--5------4--|--9------10--|

A|--3------2--|--7------8---|

E|------------|-------------|

 

GUITAR 2:

 

e|-----7--|--8------7---------------10--8--8--7--7--|

B|--------|------------10--8--7--8------------------|

G|--7-----|-----------------------------------------|

D|--------|-----------------------------------------|

A|--------|-----------------------------------------|

E|--------|-----------------------------------------|

 

GUITAR 1:

 

e|-------------|

B|-------------|

G|--9------10--|

D|---------10--|

A|--7------8---|

E|-------------|

 

GUITAR 2:

 

e|---------7------7---------------10--8--8--7--7--|

B|--7--10------------10--8--7--8------------------|

G|------------------------------------------------|

D|------------------------------------------------|

A|------------------------------------------------|

E|------------------------------------------------|

 

GUITAR 1:

 

e|----------|----------------10--10--7--8--8--|

B|----------|--8--8--7--8---------------------|

G|--5----7--|----------------7---7---4--5--5--|

D|--5----7--|--5--5--4--5---------------------|

A|--3----5--|---------------------------------|

E|----------|---------------------------------|

 

GUITAR 2:

 

e|--7--7--7----7--7--7----7--7--7--|

B|---------------------------------|

G|---------------------------------|

D|---------------------------------|

A|---------------------------------|

E|---------------------------------|

 

GUITAR 3:

 

e|-------------------------------|

B|-------------------------------|

G|----------------7--7--4--5--5--|

D|--5--5--4--5-------------------|

A|----------------5--5--2--3--3--|

E|--3--3--2--3-------------------|

 

GUITAR 1:

 

e|---------------|------------|

B|---------------|------------|

G|--5------7--7--|--5------4--|

D|--5------7--7--|--5------4--|

A|--3------5--5--|--3------2--|

E|---------------|------------|

 

GUITAR 2:

 

e|--7--7--7----7--7--7----7--7--7--|--7--7--7--|

B|---------------------------------|-----------|

G|---------------------------------|-----------|

D|---------------------------------|-----------|

A|---------------------------------|-----------|

E|---------------------------------|-----------|

 

GUITAR 1:

 

e|-------------------------------------------------------|--------------------|

B|-------------------------------------------------------|--------------------|

G|-------------------------------------------------------|--7--x--7--x--7--7--|

D|--(3)--------------------------------------------------|--7--x--7--x--7--7--|

A|--(3)--------------------------------------------------|--5--x--5--x--5--5--|

E|--(1)--x--x--x---x--x--x--x---x--x--x--x---x--x--x--x--|--------------------|

 

GUITAR 2:

 

e|---------7--7----8------|-----8--7----------------|

B|--8--10-------------10--|--8--------10--8--7-h-8--|

G|------------------------|-------------------------|

D|------------------------|-------------------------|

A|------------------------|-------------------------|

E|------------------------|-------------------------|

 

 

Outro:

 

GUITAR 1:

 

e|----------------------------------------|

B|----------------------------------------|

G|--5------7------9------5------7------9--|

D|--5------7------9------5------7------9--|

A|--3------5------7------3------5------7--|

E|----------------------------------------|

 

GUITAR 2:

 

         /~~~~~~~REPEAT~x4~~/~~REPITE~x4~~~~~~~~\

e|------|----------------------------------------|

B|------|----------------------------------------|

G|--14--|--12--11--12--12----11--11--11--12--11--|

D|------|----------------------------------------|

A|--12--|--10--9---10--10----9---9---9---10--9---|

E|------|----------------------------------------|

 

GUITAR 1:

 

e|---------------------------------------|

B|---------------------------------------|

G|--9--9--9--9--9----9--9--9--9----9--9--|

D|--9--9--9--9--9----9--9--9--9----9--9--|

A|--7--7--7--7--7----7--7--7--7----7--7--|

E|---------------------------------------|

 

GUITAR 2:

 

e|--11--11--11--11--11----11--11--11--11----11--11--|

B|--------------------------------------------------|

G|--9---9---9---9---9-----9---9---9---9-----9---9---|

D|--------------------------------------------------|

A|--------------------------------------------------|

E|--------------------------------------------------|

 

Singing! - Tron544
00:00 / 00:00

©2019 by Fefe - Tron544

Sigueme en:

  • YouTube - White Circle
  • Facebook - White Circle
  • Instagram - White Circle
  • Twitter - White Circle
This site was designed with the
.com
website builder. Create your website today.
Start Now