~ SIN LÍMITES ~

TABLATURAS ~ By Fefe - Tron544

 

Intro:

 

GUITAR 1:

 

e|--------|-------------------------------------------------|

B|--------|-------------------------------------------------|

G|--------|---------------------9---9-h-10-p-9-p-7----------|

D|--7--9--|--10--10--10--9--10-----------------------10--9--|

A|--------|-------------------------------------------------|

E|--------|-------------------------------------------------|

 

GUITAR 2:

 

e|-----------------|

B|-----------------|

G|--5------9----7--|

D|--5------9----7--|

A|--3------7----5--|

E|-----------------|

 

GUITAR 1:

 

e|--------------------------------------|

B|---------------------8----------------|

G|--------------------------------------|

D|--10--10--10--9--10-----10--9--10--9--|

A|--------------------------------------|

E|--------------------------------------|

 

GUITAR 2:

 

e|-----------------|

B|---------8-------|

G|--5------7----4--|

D|--5------5----4--|

A|--3-----------2--|

E|-----------------|

 

GUITAR 1:

 

e|--------|-------------------------------------------------|------------------------|

B|--------|-------------------------------------------------|------------------------|

G|--------|---------------------9---9-h-10-p-9-p-7----------|------------------------|

D|--7--9--|--10--10--10--9--10-----------------------10--9--|--7--7--7--7--7--9--10--|

A|--------|-------------------------------------------------|------------------------|

E|--------|-------------------------------------------------|------------------------|

 

GUITAR 2:

 

e|-----------------|-------------------------|

B|-----------------|-------------------------|

G|--5------9----7--|--2--x--x--x--x---4---5--|

D|--5------9----7--|--2--x--x--x--x---4---5--|

A|--3------7----5--|--0--x--x--x--x---2---3--|

E|-----------------|-------------------------|

 

 

Verse/Estrofa: x2

 

GUITAR 1:

 

e|--------------------------------------|------------------------------------------|

B|--------------------------------------|------------------------------------------|

G|--9--9--9--9------9--10--9--7------7--|-------------------------7----------------|

D|--------------10---------------10-----|--10--10--10--10--9--10-----10--9--7--10--|

A|--------------------------------------|------------------------------------------|

E|--------------------------------------|------------------------------------------|

 

GUITAR 2:

 

e|---------------------------------------------------|---------------------------------------------------|

B|---------------------------------------------------|---------------------------------------------------|

G|---------------------------x--x--7--x--x--7--x--x--|--x--x--5--x--x--5--x--x---------------------------|

D|--x--x--7--x--x--7--x--x---x--x--7--x--x--7--x--x--|--x--x--5--x--x--5--x--x---x--x--5--x--x--5--x--x--|

A|--x--x--7--x--x--7--x--x---x--x--5--x--x--5--x--x--|--x--x--3--x--x--3--x--x---x--x--5--x--x--5--x--x--|

E|--x--x--5--x--x--5--x--x---------------------------|---------------------------x--x--3--x--x--3--x--x--|

 

 

Pre-Chorus/Pre-Estribillo:

 

GUITAR 1:

 

e|----------------------------------------------------------|

B|----------------------------------------------------------|

G|---------7---------------------------7--9-----------------|

D|--9--10-----10--9--7--10------9--10--------10--9--9-h-10--|

A|----------------------------------------------------------|

E|----------------------------------------------------------|

 

GUITAR 2:

 

e|-------------------------------------------|

B|-------------------------------------------|

G|--------5--4----------------5--4-----------|

D|-----5---------5---------5---------5----7--|

A|--3------------5------3------------5-------|

E|---------------3-------------------3-------|

 

GUITAR 1:

 

e|-------------------------------------------------------------|

B|-------------------------------------------------------------|

G|---------7--------------------9--9--9--9--7------7-h-9----7--|

D|--9--10-----10--9--7--10---------------------10--------------|

A|-------------------------------------------------------------|

E|-------------------------------------------------------------|

 

GUITAR 2:

 

e|--------------------------------------|

B|--------------------------------------|

G|--------5--4----------------5--4------|

D|-----5---------5---------7---------5--|

A|--3------------5------5------------5--|

E|---------------3-------------------3--|

 

 

Chorus/Estribillo:

 

GUITAR 1:

 

e|--------------------------------------|------------------------------------|

B|--------------------------------------|------------------------------------|

G|--9--9--9--9------9--10--9--7---------|--7--7--7--7-----7--9--7------------|

D|--------------10---------------10--9--|--------------9-----------10--9--7--|

A|--------------------------------------|------------------------------------|

E|--------------------------------------|------------------------------------|

 

GUITAR 2:

 

e|-------------|------------|

B|-------------|------------|

G|--9------10--|--7------9--|

D|--9------10--|--7------9--|

A|--7------8---|--5------7--|

E|-------------|------------|

 

GUITAR 1:

 

e|-----------------------------------------|-----------------------------------|

B|-----------------------------------------|-----------------------------------|

G|-------------------------7---------------|----------------------------6---9--|

D|--10--10--10--10--7--10-----10--9--7--6--|--9--9--9--9--6--9--7---9----------|

A|-----------------------------------------|-----------------------------------|

E|-----------------------------------------|-----------------------------------|

 

GUITAR 2:

 

e|------------|------------------------|

B|------------|------------------------|

G|--5------7--|--4------2---4---6---9--|

D|--5------7--|--4------2---4---6---9--|

A|--3------5--|--2------0---2---4---7--|

E|------------|------------------------|

 

GUITAR 1:

 

e|------------------------------------------|--------------------------------------|

B|-------------------------8--10--8---------|-------------------------8------------|

G|--10--10--10--10--9--10------------10--9--|--9--9--9--9------9--10-----10--9--7--|

D|------------------------------------------|--------------10----------------------|

A|------------------------------------------|--------------------------------------|

E|------------------------------------------|--------------------------------------|

 

GUITAR 2:

 

e|--------------|-------------|

B|--------------|-------------|

G|--10------12--|--9------10--|

D|--10------12--|--9------10--|

A|--8-------10--|--7------8---|

E|--------------|-------------|

 

GUITAR 1:

 

e|------------------------------------------------------|

B|------------------------------------------------------|

G|--7--7--7--7------7--9--7------7--9------10--9--7--9--|

D|--------------10-----------10-------------------------|

A|------------------------------------------------------|

E|------------------------------------------------------|

 

GUITAR 2:

 

e|------------------------------------|

B|------------------------------------|

G|--7------9---7---5---7---9----9--9--|

D|--7------9--------------------9--9--|

A|--5------7---5---3---5---7----7--7--|

E|------------------------------------|

 

 

Outro:

 

GUITAR 1:

 

e|---------------------------------------------|---------------------------------------|

B|--10-----10-----10-----10-----10-----10--12--|--13--12--13--15--13---15-b-r--13------|

G|--12-b---12-b---12-b---12-b---12-b-----------|-----------------------------------14--|

D|---------------------------------------------|---------------------------------------|

A|---------------------------------------------|---------------------------------------|

E|---------------------------------------------|---------------------------------------|

 

GUITAR 2:

 

e|---------------------------------------------|---------------------------------------------|

B|---------------------------------------------|---------------------------------------------|

G|---------------------------------------------|--5--x--x--x--x--x--x------------------------|

D|--7--x--x--x--x--x--x---7--x--x--x--x--x--x--|--5--x--x--x--x--x--x---7--x--x--x--x--x--x--|

A|--7--x--x--x--x--x--x---7--x--x--x--x--x--x--|--3--x--x--x--x--x--x---7--x--x--x--x--x--x--|

E|--5--x--x--x--x--x--x---5--x--x--x--x--x--x--|------------------------5--x--x--x--x--x--x--|

 

GUITAR 1:

 

e|----------------15------------------------------------|

B|--13--15--15-b------15--13------13----15-b-r--13------|

G|----------------------------14--------------------14--|

D|------------------------------------------------------|

A|------------------------------------------------------|

E|------------------------------------------------------|

 

GUITAR 2:

 

e|---------------------------------------------|

B|---------------------------------------------|

G|--5--x--x--x--x--x--x------------------------|

D|--5--x--x--x--x--x--x---7--x--x--x--x--x--x--|

A|--3--x--x--x--x--x--x---7--x--x--x--x--x--x--|

E|------------------------5--x--x--x--x--x--x--|

 

GUITAR 1:

 

e|-----------------------------------------------------------------------------------|

B|--13--12--13-p-12-p-10-------------------------------------------------------------|

G|------------------------12--10--9----9-h-10-p-9-h-10-p-9-h-10-p-9------------------|

D|-------------------------------------------------------------------12--10---10--9--|

A|-----------------------------------------------------------------------------------|

E|-----------------------------------------------------------------------------------|

 

GUITAR 2:

 

e|---------------------------------------------|

B|---------------------------------------------|

G|--7--x--x--x--x--x--x------------------------|

D|--7--x--x--x--x--x--x---5--x--x--x--x--x--x--|

A|--5--x--x--x--x--x--x---5--x--x--x--x--x--x--|

E|------------------------3--x--x--x--x--x--x--|

 

GUITAR 1:

 

e|------------------------------------------------------|------------------------------|-----|

B|------------------------------------------------------|------------------------------|-----|

G|------------------------------------------------------|------------------------------|-----|

D|------------------------------------------------------|-----------------------9--10--|--7--|

A|--12---12--12--12--12--10----12---12--12--12--12--10--|--12---12--12--12--12---------|--7--|

E|------------------------------------------------------|------------------------------|--5--|

 

GUITAR 2:

 

e|--------------------------------------------|--------------------------|-----|

B|--------------------------------------------|--------------------------|-----|

G|--------------------------------------------|-------------------4---5--|-----|

D|--7---x--x--x--x---5----7---x--x--x--x---5--|--7---x--x--x--x---4---5--|--7--|

A|--7---x--x--x--x---5----7---x--x--x--x---5--|--7---x--x--x--x---2---3--|--7--|

E|--5---x--x--x--x---3----5---x--x--x--x---3--|--5---x--x--x--x----------|--5--|

 

 

Sin Límites - Tron544
00:00 / 00:00

©2019 by Fefe - Tron544

Sigueme en:

  • YouTube - White Circle
  • Facebook - White Circle
  • Instagram - White Circle
  • Twitter - White Circle
This site was designed with the
.com
website builder. Create your website today.
Start Now