SILHOUETTE

NARUTO SHIPPUDEN

TABS ~ By Fefe (Tron544)

 

Intro:

 

GUITAR 1:

 

e|----------------------------------|

B|----------------------------------|

G|----------------------------------|

D|--9--9--9---7--7--7---5--5--5--7--|

A|--9--9--9---7--7--7---5--5--5--7--|

E|--7--7--7---5--5--5---3--3--3--5--|

 

GUITAR 3:

 

e|-------------------------------------|

B|-------------------------------------|

G|-----------7---------------7---------|

D|--9--7--9------7--9--7--9------7--9--|

A|-------------------------------------|

E|-------------------------------------|

 

GUITAR 1:

 

e|---------------------------------------------------------------------------------------------------------|

B|---------------------------------------------------------------------------------------------------------|

G|---------------------------------------------------------------------------------------------------------|

D|--4--4--4--4---5--5--5--5---7--7--7--7---8--8--8--8---9--9--9--9---4--4--4--4---5--5--5--5---9--9--9--9--|

A|--4--4--4--4---5--5--5--5---7--7--7--7---9--9--9--9---9--9--9--9---4--4--4--4---5--5--5--5---9--9--9--9--|

E|--2--2--2--2---3--3--3--3---5--5--5--5---6--6--6--6---7--7--7--7---2--2--2--2---3--3--3--3---7--7--7--7--|

 

GUITAR 3:

 

e|--------------------------------------------------15--14-------15--14--------15--14----------14----------|

B|----------------------------------------------------------15-----------15------------15--17------14--15--|

G|--7-----7--7-/-9-----9--9-/-11---12---11--9--------------------------------------------------------------|

D|-----7------------7--------------------------12----------------------------------------------------------|

A|---------------------------------------------------------------------------------------------------------|

E|---------------------------------------------------------------------------------------------------------|

 

 

Verse/Estrofa:

 

GUITAR 1:

 

e|------------------------------------------------------|

B|------------------------------------------------------|

G|------------------------------------------------------|

D|--4------5------7------8------9------4------5------7--|

A|--4------5------7------9------9------4------5------7--|

E|--2------3------5------6------7------2------3------5--|

 

GUITAR 2:

 

e|-------------------------------------------------------7----------7-------------------------|

B|--7--------7------7--7-----------10--10-------------------10---------10---------------------|

G|-----7--9------7--------9--7--9-----------9--6--9--7----------7----------7---7--6--7--9--7--|

D|--------------------------------------------------------------------------------------------|

A|--------------------------------------------------------------------------------------------|

E|--------------------------------------------------------------------------------------------|

 

GUITAR 1:

 

e|------------------------------------------------------|

B|------------------------------------------------------|

G|------------------------------------------------------|

D|--4------5------7------8------9------4------5------7--|

A|--4------5------7------9------9------4------5------7--|

E|--2------3------5------6------7------2------3------5--|

 

GUITAR 2:

 

e|-------------------------------------------------------7----------7-------------------------|

B|--7--------7------7--7-----------10--10-------------------10---------10---------------------|

G|-----7--9------7--------9--7--9-----------9--6--9--7----------7----------7---7--6--7--9--7--|

D|--------------------------------------------------------------------------------------------|

A|--------------------------------------------------------------------------------------------|

E|--------------------------------------------------------------------------------------------|

 

GUITAR 3:

 

  /~~~~~~~~~~~~~~~~~~~~~~~~~~~~~~~~( REPEAT x2 / REPITE x2 )~~~~~~~~~~~~~~~~~~~~~~~~~~~~~~~~\

e|-------------------------------------------------------------------------------------------|

B|-----------10--10-----------10--10---8--7---------------10--10-----------10--10---8--7-----|

G|--9--7--9----------9--7--9-----------------7---9--7--9----------9--7--9-----------------7--|

D|-------------------------------------------------------------------------------------------|

A|-------------------------------------------------------------------------------------------|

E|-------------------------------------------------------------------------------------------|

 

 

Pre-Chorus/Pre-Estribillo:

 

GUITAR 1:

 

e|-----------------------------------------------------|

B|-----------------------------------------------------|

G|-----------------------------------------------------|

D|--9--9--9--9---8--8--8--8---7--7--7--7---6--6--6--6--|

A|--9--9--9--9---9--9--9--9---7--7--7--7---7--7--7--7--|

E|--7--7--7--7---6--6--6--6---5--5--5--5---4--4--4--4--|

 

GUITAR 2:

 

e|---------------------------------7-----------------|

B|-----7--7----------7--7-------------7--------------|

G|--7---------7---7---------7---7---------7-------6--|

D|---------------------------------------------9-----|

A|---------------------------------------------------|

E|---------------------------------------------------|

 

GUITAR 3:

 

e|--------------------------------------|

B|--------------------------------------|

G|-----7--------7--------7--------7-----|

D|--9-----9--8-----8--7-----7--6-----6--|

A|--------------------------------------|

E|--------------------------------------|

 

GUITAR 1:

 

e|-----------------------------------------------------|

B|-----------------------------------------------------|

G|-----------------------------------------------------|

D|--5--5--5--5---5--5--5--5---7--7--7--7---7--7--7--7--|

A|--5--5--5--5---5--5--5--5---7--7--7--7---7--7--7--7--|

E|--3--3--3--3---3--3--3--3---5--5--5--5---5--5--5--5--|

 

GUITAR 2:

 

e|----------------------------------------|

B|----------------------------7-----------|

G|--7---7---6--7--9---9---9------9--7--9--|

D|----------------------------------------|

A|----------------------------------------|

E|----------------------------------------|

 

GUITAR 3:

 

e|-------------------------------------------------------------------------------------------------|

B|-------------------------------------------------------------------------------------------------|

G|--7--7--7--7--7--7--7--7---7--7--7--7--7--7--7--7---9--9--9--9--9--9--9--9---11--11--11--11--11--|

D|-------------------------------------------------------------------------------------------------|

A|--5--5--5--5--5--5--5--5---5--5--5--5--5--5--5--5---7--7--7--7--7--7--7--7---9---9---9---9---9---|

E|-------------------------------------------------------------------------------------------------|

Silhouette - Tron544
00:00 / 00:00
DONATE%20BUTTON%20(EN)_edited.png

Chorus/Estribillo:

 

GUITAR 1:

 

e|-----------------------------------------------------|

B|-----------------------------------------------------|

G|-----------------------------------------------------|

D|--4--4--4--4---5--5--5--5---7--7--7--7---8--8--8--8--|

A|--4--4--4--4---5--5--5--5---7--7--7--7---9--9--9--9--|

E|--2--2--2--2---3--3--3--3---5--5--5--5---6--6--6--6--|

 

GUITAR 2:

 

e|------------------------------------------------------|

B|-----------7--7------------------------8--7-----7-----|

G|--7-----7--------9--7--9---9-----6--9--------9-----9--|

D|-----7------------------------7-----------------------|

A|------------------------------------------------------|

E|------------------------------------------------------|

 

GUITAR 3:

 

e|----------------------------------------------------------------------------------------------------------|

B|----------------------------------------------------------------------------------------------------------|

G|--7--7--7--7--7--7--7--7--9--9--9--9--9--9--9--9--11--11--11--11--12--12--12--12--6--6--6--6--9--9--9--9--|

D|----------------------------------------------------------------------------------------------------------|

A|--5--5--5--5--5--5--5--5--7--7--7--7--7--7--7--7--9---9---9---9---10--10--10--10--4--4--4--4--7--7--7--7--|

E|----------------------------------------------------------------------------------------------------------|

 

GUITAR 1:

 

e|-----------------------------------------------------|

B|-----------------------------------------------------|

G|-----------------------------------------------------|

D|--9--9--9--9---4--4--4--4---5--5--5--5---9--9--9--9--|

A|--9--9--9--9---4--4--4--4---5--5--5--5---9--9--9--9--|

E|--7--7--7--7---2--2--2--2---3--3--3--3---7--7--7--7--|

 

GUITAR 2:

 

e|--7----------7-------------------------|

B|-----10---------10------------------7--|

G|---------7----------7---7--6--7--9-----|

D|---------------------------------------|

A|---------------------------------------|

E|---------------------------------------|

 

GUITAR 3:

 

e|----------------------------------------------------------------------------------------------------------|

B|----------------------------------------------------------------------------------------------------------|

G|-7--7--7--7--7--7--7--7--9--9--9--9--9--9--9--9--11--11--11--11--12--12--12--12--6--6--7--7--9--9--11--11-|

D|----------------------------------------------------------------------------------------------------------|

A|-5--5--5--5--5--5--5--5--7--7--7--7--7--7--7--7--9---9---9---9---10--10--10--10--4--4--5--5--7--7--9---9--|

E|----------------------------------------------------------------------------------------------------------|

 

GUITAR 1:

 

e|-----------------------------------------------------|

B|-----------------------------------------------------|

G|-----------------------------------------------------|

D|--4--4--4--4---5--5--5--5---7--7--7--7---8--8--8--8--|

A|--4--4--4--4---5--5--5--5---7--7--7--7---9--9--9--9--|

E|--2--2--2--2---3--3--3--3---5--5--5--5---6--6--6--6--|

 

GUITAR 2:

 

e|------------------------------------------------------|

B|-----------7--7------------------------8--7-----7-----|

G|--7-----7--------9--7--9---9-----6--9--------9-----9--|

D|-----7------------------------7-----------------------|

A|------------------------------------------------------|

E|------------------------------------------------------|

 

GUITAR 3:

 

e|----------------------------------------------------------------------------------------------------------|

B|----------------------------------------------------------------------------------------------------------|

G|--7--7--7--7--7--7--7--7--9--9--9--9--9--9--9--9--11--11--11--11--12--12--12--12--6--6--6--6--9--9--9--9--|

D|----------------------------------------------------------------------------------------------------------|

A|--5--5--5--5--5--5--5--5--7--7--7--7--7--7--7--7--9---9---9---9---10--10--10--10--4--4--4--4--7--7--7--7--|

E|----------------------------------------------------------------------------------------------------------|

 

GUITAR 1:

 

e|-----------------------------------------------------|

B|-----------------------------------------------------|

G|-----------------------------------------------------|

D|--9--9--9--9---4--4--4--4---5--5--5--5---9--9--9--9--|

A|--9--9--9--9---4--4--4--4---5--5--5--5---9--9--9--9--|

E|--7--7--7--7---2--2--2--2---3--3--3--3---7--7--7--7--|

 

GUITAR 2:

 

e|--7----------7--------------------------|

B|-----10---------10------------10-----7--|

G|---------7----------7---7--6------9-----|

D|----------------------------------------|

A|----------------------------------------|

E|----------------------------------------|

 

GUITAR 3:

 

e|----------------------------------------------------------------------------------------------------------|

B|----------------------------------------------------------------------------------------------------------|

G|-7--7--7--7--7--7--7--7--9--9--9--9--9--9--9--9--11--11--11--11--12--12--12--12--6--6--7--7--9--9--11--11-|

D|----------------------------------------------------------------------------------------------------------|

A|-5--5--5--5--5--5--5--5--7--7--7--7--7--7--7--7--9---9---9---9---10--10--10--10--4--4--5--5--7--7--9---9--|

E|----------------------------------------------------------------------------------------------------------|

 

GUITAR 1:

 

e|---------------------------|

B|---------------------------|

G|---------------------------|

D|--4--4--4--4---5--5--5--5--|

A|--4--4--4--4---5--5--5--5--|

E|--2--2--2--2---3--3--3--3--|

 

GUITAR 2:

 

e|--------------------------|

B|-----------7--7-----------|

G|--7-----7--------9--7--9--|

D|-----7--------------------|

A|--------------------------|

E|--------------------------|

 

GUITAR 3:

 

e|--10--10--10--10--10--10--10--10---12--12--12--12--12--12--12--12--|

B|-------------------------------------------------------------------|

G|--7---7---7---7---7---7---7---7----9---9---9---9---9---9---9---9---|

D|-------------------------------------------------------------------|

A|-------------------------------------------------------------------|

E|-------------------------------------------------------------------|

 

GUITAR 1:

 

e|---------------------------|

B|---------------------------|

G|---------------------------|

D|--7--7--7--7---8--8--8--8--|

A|--7--7--7--7---9--9--9--9--|

E|--5--5--5--5---6--6--6--6--|

 

GUITAR 2:

 

e|------------------------------|

B|--------------8--10--7--------|

G|--9-----6--9------------9--7--|

D|-----7------------------------|

A|------------------------------|

E|------------------------------|

 

GUITAR 3:

 

e|--14--14--14--14--15--15--15--15---9--9--9--9--12--12--12--12--|

B|---------------------------------------------------------------|

G|--11--11--11--11--12--12--12--12---6--6--6--6--9---9---9---9---|

D|---------------------------------------------------------------|

A|---------------------------------------------------------------|

E|---------------------------------------------------------------|

 

GUITAR 1:

 

e|---------------------------|

B|---------------------------|

G|---------------------------|

D|--9--9--9--9---4--4--4--4--|

A|--9--9--9--9---4--4--4--4--|

E|--7--7--7--7---2--2--2--2--|

 

GUITAR 2:

 

e|--7----------7------|

B|-----10---------10--|

G|---------7----------|

D|--------------------|

A|--------------------|

E|--------------------|

 

GUITAR 3:

 

e|--10--10--10--10--10--10--10--10---12--12--12--12--12--12--12--12--|

B|-------------------------------------------------------------------|

G|--7---7---7---7---7---7---7---7----9---9---9---9---9---9---9---9---|

D|-------------------------------------------------------------------|

A|-------------------------------------------------------------------|

E|-------------------------------------------------------------------|

 

GUITAR 1:

 

e|---------------------------|

B|---------------------------|

G|---------------------------|

D|--5--5--5--5---9--9--9--9--|

A|--5--5--5--5---9--9--9--9--|

E|--3--3--3--3---7--7--7--7--|

 

GUITAR 2:

 

e|---------------------|

B|---------------------|

G|--7---7--6--7--9--7--|

D|---------------------|

A|---------------------|

E|---------------------|

 

GUITAR 3:

 

e|--14--14--14--14--15--15--15--15---9--9--10--10--12--12--10--10--|

B|-----------------------------------------------------------------|

G|--11--11--11--11--12--12--12--12---6--6--7---7---9---9---7---7---|

D|-----------------------------------------------------------------|

A|-----------------------------------------------------------------|

E|-----------------------------------------------------------------|

 

 

Outro:

 

GUITAR 1:

 

e|-----------------------------------------------------|

B|-----------------------------------------------------|

G|-----------------------------------------------------|

D|--5--5--5--5---8--8--8--8---9--9--9--9---4--4--4--4--|

A|--5--5--5--5---9--9--9--9---9--9--9--9---4--4--4--4--|

E|--3--3--3--3---6--6--6--8---7--7--7--7---2--2--2--2--|

 

GUITAR 2:

 

e|--------------------------------7--------------------|

B|--10--7----------10--7-------------7-----------------|

G|----------9--9-----------9--9----------9--7-------6--|

D|-----------------------------------------------9-----|

A|-----------------------------------------------------|

E|-----------------------------------------------------|

 

GUITAR 3:

 

e|--------------------------------------------------10--10---9--9---14--14---12--12---10--10--10--10--|

B|--15--15---14--14---10--10--------------------------------------------------------------------------|

G|-----------------------------9--9---7--7---6--6---7---7----6--6---11--11---9---9----7---7---7---7---|

D|--12--12---11--11---7---7---------------------------------------------------------------------------|

A|-----------------------------7--7---5--5---4--4-----------------------------------------------------|

E|----------------------------------------------------------------------------------------------------|

 

GUITAR 1:

 

e|-------------------------------------------------------------------|

B|-------------------------------------------------------------------|

G|-------------------------------------------------------------------|

D|--5--5--5--5---7--7--7--7---9--9--9---7--7--7---5--5--5---7--7--7--|

A|--5--5--5--5---7--7--7--7---9--9--9---7--7--7---5--5--5---7--7--7--|

E|--3--3--3--3---5--5--5--5---7--7--7---5--5--5---3--3--3---5--5--5--|

 

GUITAR 2:

 

e|------------------------------------|

B|----------7-------------------------|

G|--7---7------9--7-----7-/-9--9-\-7--|

D|-------------------9----------------|

A|------------------------------------|

E|------------------------------------|

 

GUITAR 3:

 

e|--7--7--7---10--10--10---9--9--9---14--14--14-----------------------------------------------|

B|--------------------------------------------------------------------------------------------|

G|--4--4--4---7---7---7----6--6--6---11--11--11------------7---------------7------------7--9--|

D|------------------------------------------------9--7--9------7--9--7--9------7--9--7--------|

A|--------------------------------------------------------------------------------------------|

E|--------------------------------------------------------------------------------------------|

©2015 by Fefe - Tron544

Sigueme en:

  • YouTube - White Circle
  • Facebook - White Circle
  • Instagram - White Circle
  • Twitter - White Circle
This site was designed with the
.com
website builder. Create your website today.
Start Now