~ SIGN ~

TABLATURAS ~ By Fefe - Tron544

 

Intro:


GUITAR 1:


e|--------2------------0------------2------------------|
B|-----------3------------2------------3---------2-----|
G|-----2--------------------------------------------2--|

D|--0---------------2------------4---------------------|
A|---------------0------------2---------------4--------|
E|-----------------------------------------2-----------|


GUITAR 2:


e|-----------|------------------------------------------------|

B|-----------|------------------------------------------------|
G|-----------|------------------------------------------------|
D|-----------|--4-h-5--4-----4---------4-h-5--4-----4---4--7--|
A|--5--5--7--|------------7------5--7------------7------------|

E|-----------|------------------------------------------------|

 

GUITAR 1:


e|----------------------------2--|

B|--------3------------5------3--|

G|-----------4------------6---4--|

D|----------------------------4--|

A|-----5------------7---------2--|

E|--3------------5---------------|


GUITAR 2:


e|-------------------------------|

B|-------------------------------|

G|-------------------------------|

D|--7--5--4----------------------|

A|-----------7--5------4--4-h-5--|

E|------------------7------------|

 

GUITAR 1:

 

e|------------|

B|------------|

G|------------|

D|--5------7--|

A|--5------7--|

E|--3------5--|

 

GUITAR 2:

 

e|--------------------|

B|--------------------|

G|--11---9------------|

D|-----------12---11--|

A|--------------------|

E|--------------------|

 

GUITAR 3:

 

e|----------------------------------------------------------|

B|----------------------------------------------------------|

G|--------------14--------------------------14--------------|

D|--12--11--12------12--11--12--11--12--11------12--11--12--|

A|----------------------------------------------------------|

E|----------------------------------------------------------|

 

GUITAR 1:

 

e|------------------------|

B|------------------------|

G|------------------------|

D|--9------7--7--7--7--7--|

A|--9------7--7--7--7--7--|

E|--7------5--5--5--5--5--|

 

GUITAR 2:

 

e|--------------------|

B|--------------------|

G|--9-----------------|

D|------12---11-------|

A|----------------12--|

E|--------------------|

 

GUITAR 3:

 

e|-----------------------------------------------------------|

B|-----------------------------------------------------------|

G|--------------14--------------------------14---12--11------|

D|--11--12--11------12--11--12--11--12--11---------------14--|

A|-----------------------------------------------------------|

E|-----------------------------------------------------------|

 

GUITAR 1:

 

e|-----------------------------------------------------------------------------------|

B|-----------------------------------------------------------------------------------|

G|-----------------------------------------------------------------------------------|

D|--(5)-x--x--x--x--x--x--x---(7)-x--x--x--x--x--x--x---(9)-x--x--x--x--x--x--x---7--|

A|--(5)-x--x--x--x--x--x--x---(7)-x--x--x--x--x--x--x---(9)-x--x--x--x--x--x--x---7--|

E|--(3)-x--x--x--x--x--x--x---(5)-x--x--x--x--x--x--x---(7)-x--x--x--x--x--x--x---5--|

 

GUITAR 2:

 

e|--------------------------------------|

B|--------------------------------------|

G|--11---9-------------9--------9-/-11--|

D|-----------12---11-------12-----------|

A|--------------------------------------|

E|--------------------------------------|

 

GUITAR 3:

 

e|--------------------------------------------------------------------------------------|

B|--------------------------------------------------------------------------------------|

G|--------------14--------------------------14--------------------------14----------11--|

D|------11--12------12--11--12--11--12--11------12--11--12------11--12------11--12------|

A|--14------------------------------------------------------14--------------------------|

E|--------------------------------------------------------------------------------------|

 

 

Verse/Estrofa:

 

GUITAR 1:

 

e|---------------------------------------------------------------------------------|

B|---------------------------------------------------------------------------------|

G|--7---x--x--x--x--x--7--x--x--7--x--x--7-----------------------------------------|

D|--7---x--x--x--x--x--7--x--x--7--x--x--7---7---x--x--x--x--x--7--x--x--7---5--7--|

A|--5---x--x--x--x--x--5--x--x--5--x--x--5---7---x--x--x--x--x--7--x--x--7---5--7--|

E|-------------------------------------------5---x--x--x--x--x--5--x--x--5---3--5--|

 

GUITAR 2:

 

e|-------------------------------------------------------------------------|

B|-------------------------------------------------------------------------|

G|-------------------------------------------------------------------------|

D|---------9--------------------------------9-----------------------9--11--|

A|--9--12------12--12--9--12--9--9---9--12-----12--12--12--9--12-----------|

E|-------------------------------------------------------------------------|

 

GUITAR 3:

 

e|--------|

B|--------|

G|--7--9--|

D|--------|

A|--5--7--|

E|--------|

 

GUITAR 1:

 

e|-----------------------------------------------------|

B|-----------------------------------------------------|

G|-----------------------------------------------------|

D|--9--9--9--9---7--7--7--7---5--5--5--5---5--5--5--5--|

A|--9--9--9--9---7--7--7--7---5--5--5--5---5--5--5--5--|

E|--7--7--7--7---5--5--5--5---3--3--3--3---3--3--3--3--|

 

GUITAR 2:

 

e|------------------------------------------|

B|------------------------------------------|

G|--------------11--9-----------------------|

D|--12--12--12---------12--11------11---12--|

A|-----------------------------12-----------|

E|------------------------------------------|

 

GUITAR 3:

 

e|-------------------------------------------------------------------------|

B|-------------------------------------------------------------------------|

G|--11--11--11--11---9--9--9--9---7--7--7--7---12--12--12--12--12--12--12--|

D|-------------------------------------------------------------------------|

A|--9---9---9---9----7--7--7--7---5--5--5--5---10--10--10--10--10--10--10--|

E|-------------------------------------------------------------------------|

 

GUITAR 1:

 

e|---------------------------------------------------------------------------------|

B|---------------------------------------------------------------------------------|

G|--7---x--x--x--x--x--7--x--x--7--x--x--7-----------------------------------------|

D|--7---x--x--x--x--x--7--x--x--7--x--x--7---7---x--x--x--x--x--7--x--x--7---5--7--|

A|--5---x--x--x--x--x--5--x--x--5--x--x--5---7---x--x--x--x--x--7--x--x--7---5--7--|

E|-------------------------------------------5---x--x--x--x--x--5--x--x--5---3--5--|

 

GUITAR 2:

 

e|----------------------------------------------------------------------------------|

B|----------------------------------------------------------------------------------|

G|----------------------------------------------------------------------------------|

D|---------9------------------------------------9----------------------------9--11--|

A|--9--12-----12---12--12--9--12--9--9---9--12-----12--12--12---12--9--12-----------|

E|----------------------------------------------------------------------------------|

 

GUITAR 3:

 

e|-------------------------------------------------------------------------------------------------|

B|-------------------------------------------------------------------------------------------------|

G|--------------14----------14----------14----------14----------14----------14----------14---7--9--|

D|--12--11--12------11--12------11--12------11--12------11--12------11--12------11--12-------------|

A|-------------------------------------------------------------------------------------------5--7--|

E|-------------------------------------------------------------------------------------------------|

 

GUITAR 1:

 

e|-----------------------------------------------------|

B|-----------------------------------------------------|

G|-----------------------------------------------------|

D|--9--9--9--9---7--7--7--7---5--5--5--5---7--7--7--7--|

A|--9--9--9--9---7--7--7--7---5--5--5--5---7--7--7--7--|

E|--7--7--7--7---5--5--5--5---3--3--3--3---5--5--5--5--|

 

GUITAR 2:

 

e|------------------------------------------|

B|------------------------------------------|

G|--------------11--9-----------------------|

D|--12--12--12---------12--11------11---12--|

A|-----------------------------12-----------|

E|------------------------------------------|

 

GUITAR 3:

 

e|-------------------------------------------------------------------------|

B|-------------------------------------------------------------------------|

G|--11--11--11--11---9--9--9--9---7--7--7--7---12--12--12--12--12--12--12--|

D|-------------------------------------------------------------------------|

A|--9---9---9---9----7--7--7--7---5--5--5--5---10--10--10--10--10--10--10--|

E|-------------------------------------------------------------------------|

 

 

Pre-Chorus/Pre-Estribillo:

 

GUITAR 1:

 

e|-----------------------|

B|-----------------------|

G|-----------------------|

D|--5---5--5---7---7--7--|

A|--5---5--5---7---7--7--|

E|--3---3--3---5---5--5--|

 

GUITAR 2:

 

e|------------------------------------------------------|

B|------------------------------------------------------|

G|------------------------------------------------------|

D|--12--11--12--12--12--12--12--11--12--12--12--12--12--|

A|------------------------------------------------------|

E|------------------------------------------------------|

 

GUITAR 3:

 

e|----------------------------------------------------------|

B|----------------------------------------------------------|

G|--------------14--------------------------14--------------|

D|--12--11--12------12--11--12--11--12--11------12--11--12--|

A|----------------------------------------------------------|

E|----------------------------------------------------------|

 

GUITAR 1:

 

e|-----------------------|

B|-----------------------|

G|-------------4---4--4--|

D|--4---4--4---4---4--4--|

A|--4---4--4---2---2--2--|

E|--2---2--2-------------|

 

GUITAR 2:

 

e|------------------------------------------|

B|------------------------------------------|

G|--------------------------9--11-----------|

D|--11--12--12--12--12--12---------12-------|

A|--------------------------------------12--|

E|------------------------------------------|

 

GUITAR 3:

 

e|-----------------------------------------------------------|

B|-----------------------------------------------------------|

G|--------------14--------------------------14---12--11------|

D|--11--12--11------12--11--12--11--12--11---------------14--|

A|-----------------------------------------------------------|

E|-----------------------------------------------------------|

 

GUITAR 1:

 

e|-------------------------------------------------------------------------------|

B|-------------------------------------------------------------------------------|

G|-------------------------------------------------------------------------------|

D|--2--x--x--x--2--x--x--x---5--x--x--5--x--x--5--x---7--x--x--7--x--x--7--x--7--|

A|--2--x--x--x--2--x--x--x---5--x--x--5--x--x--5--x---7--x--x--7--x--x--7--x--7--|

E|--0--x--x--x--0--x--x--x---3--x--x--3--x--x--3--x---5--x--x--5--x--x--5--x--5--|

 

GUITAR 2:

 

e|--------------------------------------------|

B|--------------------------------------------|

G|-----------------------------------------9--|

D|--9----------------------12--11--12--12-----|

A|-----12--12--12--12--12---------------------|

E|--------------------------------------------|

 

GUITAR 3:

 

e|-----------------|

B|-----------------|

G|---------11---9--|

D|--9--------------|

A|-----------------|

E|-----------------|

 

 

Chorus/Estribillo:

 

GUITAR 1:

 

e|---------------------------------|

B|---------------------------------|

G|--7--7--7--7--7------------------|

D|--7--7--7--7--7---7--7--7--7--7--|

A|--5--5--5--5--5---7--7--7--7--7--|

E|------------------5--5--5--5--5--|

 

GUITAR 2:

 

e|-------------|------------------------------|

B|-------------|------------------------------|

G|----------9--|--12--11--9--11------------9--|

D|--12--12-----|-------------------12--12-----|

A|-------------|------------------------------|

E|-------------|------------------------------|

 

GUITAR 3:

 

e|-------------------------------------------------------------------|

B|--15--15--15--15--15--15--15--15---17--17--17--17--17--17--17--17--|

G|-------------------------------------------------------------------|

D|--12--12--12--12--12--12--12--12---14--14--14--14--14--14--14--14--|

A|-------------------------------------------------------------------|

E|-------------------------------------------------------------------|

 

GUITAR 1:

 

e|---------------------------------|

B|---------------------------------|

G|--4--4--4--4--4------------------|

D|--4--4--4--4--4---4--4--4--4--4--|

A|--2--2--2--2--2---4--4--4--4--4--|

E|------------------2--2--2--2--2--|

 

GUITAR 2:

 

e|--------------------------|

B|--------------------------|

G|--12--11--9--11-----------|

D|------------------12--12--|

A|--------------------------|

E|--------------------------|

 

GUITAR 3:

 

e|-------------------------------------------------------------------|

B|--15--15--15--15--15--15--15--15---14--14--14--14--14--14--14--14--|

G|-------------------------------------------------------------------|

D|--12--12--12--12--12--12--12--12---11--11--11--11--11--11--11--11--|

A|-------------------------------------------------------------------|

E|-------------------------------------------------------------------|

 

GUITAR 1:

 

e|---------------------------------|

B|---------------------------------|

G|------------------7--7--7--7--7--|

D|--5--5--5--5--5---7--7--7--7--7--|

A|--5--5--5--5--5---5--5--5--5--5--|

E|--3--3--3--3--3------------------|

 

GUITAR 2:

 

e|----------------------------------------|

B|----------------------------------------|

G|----------------------------------------|

D|--12-------12------12--12-------12--12--|

A|-------12------12-----------12----------|

E|----------------------------------------|

 

GUITAR 3:

 

e|-------------------------------------------------------------------|

B|--12--12--12--12--12--12--12--12---10--10--10--10--10--10--10--10--|

G|-------------------------------------------------------------------|

D|--9---9---9---9---9---9---9---9----7---7---7---7---7---7---7---7---|

A|-------------------------------------------------------------------|

E|-------------------------------------------------------------------|

 

GUITAR 1:

 

e|---------------------------------|

B|---------------------------------|

G|------------------------7--7--9--|

D|--7--7--7--7--7--7--7------------|

A|--7--7--7--7--7--7--7---5--5--7--|

E|--5--5--5--5--5--5--5------------|

 

GUITAR 2:

 

e|--------------------------|

B|--------------------------|

G|--9--------------------9--|

D|-----12--11----12--12-----|

A|--------------------------|

E|--------------------------|

 

GUITAR 3:

 

e|-------------------------------------------------------------------|

B|--14--14--14--14--14--14--14--14---17--17--17--17--17--17--17--17--|

G|-------------------------------------------------------------------|

D|--11--11--11--11--11--11--11--11---14--14--14--14--14--14--14--14--|

A|-------------------------------------------------------------------|

E|-------------------------------------------------------------------|

 

GUITAR 1:

 

e|---------------------------------|

B|---------------------------------|

G|--7--7--7--7--7------------------|

D|--7--7--7--7--7---7--7--7--7--7--|

A|--5--5--5--5--5---7--7--7--7--7--|

E|------------------5--5--5--5--5--|

 

GUITAR 2:

 

e|------------------------------|

B|------------------------------|

G|--12--11--9--11------------9--|

D|-------------------12--12-----|

A|------------------------------|

E|------------------------------|

 

GUITAR 3:

 

e|-------------------------------------------------------------------|

B|--15--15--15--15--15--15--15--15---17--17--17--17--17--17--17--17--|

G|-------------------------------------------------------------------|

D|--12--12--12--12--12--12--12--12---14--14--14--14--14--14--14--14--|

A|-------------------------------------------------------------------|

E|-------------------------------------------------------------------|

 

GUITAR 1:

 

e|---------------------------------|

B|---------------------------------|

G|--4--4--4--4--4------------------|

D|--4--4--4--4--4---4--4--4--4--4--|

A|--2--2--2--2--2---4--4--4--4--4--|

E|------------------2--2--2--2--2--|

 

GUITAR 2:

 

e|--------------------------|

B|--------------------------|

G|--12--11--9--11-----------|

D|------------------12--12--|

A|--------------------------|

E|--------------------------|

 

GUITAR 3:

 

e|-------------------------------------------------------------------|

B|--15--15--15--15--15--15--15--15---14--14--14--14--14--14--14--14--|

G|-------------------------------------------------------------------|

D|--12--12--12--12--12--12--12--12---11--11--11--11--11--11--11--11--|

A|-------------------------------------------------------------------|

E|-------------------------------------------------------------------|

 

GUITAR 1:

 

e|---------------------------------|

B|---------------------------------|

G|---------------------------------|

D|--5--5--5--5--5---7--7--7--7--7--|

A|--5--5--5--5--5---7--7--7--7--7--|

E|--3--3--3--3--3---5--5--5--5--5--|

 

GUITAR 2:

 

e|--------------------------------------------|

B|--10----------------------------------------|

G|--------------------------------------------|

D|------12---12--12--12--11--12-------12--12--|

A|--------------------------------12----------|

E|--------------------------------------------|

 

GUITAR 3:

 

e|-------------------------------------------------------------------|

B|--12--12--12--12--12--12--12--12---14--14--14--14--14--14--14--14--|

G|-------------------------------------------------------------------|

D|--9---9---9---9---9---9---9---9----11--11--11--11--11--11--11--11--|

A|-------------------------------------------------------------------|

E|-------------------------------------------------------------------|

 

GUITAR 1:

 

e|---------------------------------|

B|---------------------------------|

G|---------------------------------|

D|--9--9--9--9--9---7--7--7--7--7--|

A|--9--9--9--9--9---7--7--7--7--7--|

E|--7--7--7--7--7---5--5--5--5--5--|

 

GUITAR 2:

 

e|-------------------|

B|-------------------|

G|-------------------|

D|--11--12---12--12--|

A|-------------------|

E|-------------------|

 

GUITAR 3:

 

e|-------------------------------------------------------------------|

B|--15--15--15--15--15--15--15--15---14--14--14--14--14--14--14--14--|

G|-------------------------------------------------------------------|

D|--12--12--12--12--12--12--12--12---11--11--11--11--11--11--11--11--|

A|-------------------------------------------------------------------|

E|-------------------------------------------------------------------|

 

GUITAR 1:

 

e|-----------------------------------------------|

B|-----------------------------------------------|

G|-----------------------------------------------|

D|--(5)-x--x--x--x--x--x--x---(7)-x--x--x--x--7--|

A|--(5)-x--x--x--x--x--x--x---(7)-x--x--x--x--7--|

E|--(3)-x--x--x--x--x--x--x---(5)-x--x--x--x--5--|

 

GUITAR 2:

 

e|----------------------------------------------------|

B|--10------------------------------------------------|

G|----------------------------------------------------|

D|------12---12--12--12--11--12-------12--12--11--12--|

A|--------------------------------12------------------|

E|----------------------------------------------------|

 

GUITAR 3:

 

e|-------------------------------------------------------|

B|--15--15--15--15--15--15--15--15---17--17--17--17--17--|

G|-------------------------------------------------------|

D|--12--12--12--12--12--12--12--12---14--14--14--14--14--|

A|-------------------------------------------------------|

E|-------------------------------------------------------|

 

 

Outro:

 

GUITAR 1:

 

e|-----------------------------------------------------------------------------------|

B|-----------------------------------------------------------------------------------|

G|-----------------------------------------------------------------------------------|

D|--(5)-x--x--x--x--x--x--x---(7)-x--x--x--x--x--x--x---(9)-x--x--x--x--x--x--x---9--|

A|--(5)-x--x--x--x--x--x--x---(7)-x--x--x--x--x--x--x---(9)-x--x--x--x--x--x--x---9--|

E|--(3)-x--x--x--x--x--x--x---(5)-x--x--x--x--x--x--x---(7)-x--x--x--x--x--x--x---7--|

 

GUITAR 2:

 

e|----------------------------------|

B|----------------------------------|

G|--11---9-------------9------------|

D|-----------12---11-------12---12--|

A|----------------------------------|

E|----------------------------------|

 

GUITAR 3:

 

e|--------------------------------------------------------------------------------------|

B|--------------------------------------------------------------------------------------|

G|--------------14--------------------------14--------------------------14--------------|

D|--12--11--12------12--11--12--11--12--11------12--11--12------11--12------11--12--12--|

A|----------------------------------------------------------14--------------------------|

E|--------------------------------------------------------------------------------------|

 

 

 

Sign - Tron544
00:00 / 00:00

©2019 by Fefe - Tron544

Sigueme en:

  • YouTube - White Circle
  • Facebook - White Circle
  • Instagram - White Circle
  • Twitter - White Circle
This site was designed with the
.com
website builder. Create your website today.
Start Now