~ SHUNKAN SENTIMENTAL ~

TABLATURAS ~ By Fefe - Tron544

 

Intro:

 

GUITAR 2:

 

e|--3-(H)---------------------|

B|---------2-(H)-------10--12-|

G|-----------------11---------|

D|----------------------------|

A|----------------------------|

E|----------------------------|

 

GUITAR 1:

 

e|---------------------------|

B|---------------------------|

G|--7--7--7--7---9--9--9--9--|

D|--7--7--7--7---9--9--9--9--|

A|--5--5--5--5---7--7--7--7--|

E|---------------------------|

 

GUITAR 2:

 

e|------------------------------------------------------------------|

B|--12--12-b--12--10-------12--12-b--12--10-------12--12-b--12--10--|

G|--------------------11---------------------11---------------------|

D|------------------------------------------------------------------|

A|------------------------------------------------------------------|

E|------------------------------------------------------------------|

 

GUITAR 1:

 

e|-------------------------------|

B|-------------------------------|

G|--11--11--11--11---6--6--6--6--|

D|--11--11--11--11---6--6--6--6--|

A|--9---9---9---9----4--4--4--4--|

E|-------------------------------|

 

GUITAR 2:

 

e|-----------------------12---10--9----------------------|

B|-------------------10--------------12--10------10--12--|

G|--11---9--11---11--------------------------11----------|

D|-------------------------------------------------------|

A|-------------------------------------------------------|

E|-------------------------------------------------------|

 

GUITAR 1:

 

e|---------------------------------------------|

B|---------------------------------------------|

G|--7--7--7--7---9--9--9--9---11------(11)-11--|

D|--7--7--7--7---9--9--9--9---11------(11)-11--|

A|--5--5--5--5---7--7--7--7---9-------(9)--9---|

E|---------------------------------------------|

 

GUITAR 2:

 

e|-------------------------------------------------------------------|

B|--12--12-b--12--10-------12--12-b--12--10------------------10------|

G|--------------------11---------------------11---9--10--11------11--|

D|-------------------------------------------------------------------|

A|-------------------------------------------------------------------|

E|-------------------------------------------------------------------|

 

 

Verse/Estrofa:

 

GUITAR 1:

 

e|-------------------------------------------------------------------------------------------------------------|

B|-------------------------------------------------------------------------------------------------------------|

G|-----------------------------(6)-x--x--x---x--x--x--x---(7)-x--x--x---x--x--x--x---(2)-x--x--x---x--x--x--x--|

D|--(4)-x--x--x---x--x--x--x---(6)-x--x--x---x--x--x--x---(7)-x--x--x---x--x--x--x---(2)-x--x--x---x--x--x--x--|

A|--(4)-x--x--x---x--x--x--x---(4)-x--x--x---x--x--x--x---(5)-x--x--x---x--x--x--x---(0)-x--x--x---x--x--x--x--|

E|--(2)-x--x--x---x--x--x--x-----------------------------------------------------------------------------------|

 

GUITAR 2:

 

e|--------------------------------------------------------------------------|

B|--10--10--10--9-----------------------------------------------------------|

G|-----------------11--9--------------9-/-11--11--11-\-9--9--9---9----------|

D|------------------------11--11--11--------------------------------12--11--|

A|--------------------------------------------------------------------------|

E|--------------------------------------------------------------------------|

 

GUITAR 1:

 

e|-----------------------------------------------------------------------------------------------|

B|-----------------------------------------------------------------------------------------------|

G|-----------------------------(6)-x--x--x---x--x--x--x---(7)-x--x--x---x--x--x--x---2--2--2--2--|

D|--(4)-x--x--x---x--x--x--x---(6)-x--x--x---x--x--x--x---(7)-x--x--x---x--x--x--x---2--2--2--2--|

A|--(4)-x--x--x---x--x--x--x---(4)-x--x--x---x--x--x--x---(5)-x--x--x---x--x--x--x---0--0--0--0--|

E|--(2)-x--x--x---x--x--x--x---------------------------------------------------------------------|

 

GUITAR 2:

 

e|-----------------------------------------------------------|

B|-----------------------------------------------------------|

G|----------9--9-/-11--11-\-9--------------------------------|

D|--11--11---------------------12--11--12--11--9------9--11--|

A|------------------------------------------------12---------|

E|-----------------------------------------------------------|

 

GUITAR 3:

 

e|----------------|

B|--2-(H)---------|

G|---------2-(H)--|

D|----------------|

A|----------------|

E|----------------|

 

GUITAR 1:

 

e|------------------------------------------------------------|

B|------------------------------------------------------------|

G|---------------6--6--6--6--6---7--7--7--7---2--2--2--2------|

D|--4--4--4--4---6--6--6--6--6---7--7--7--7---2--2--2--2---6--|

A|--4--4--4--4---4--4--4--4--4---5--5--5--5---0--0--0--0---6--|

E|--2--2--2--2---------------------------------------------4--|

 

GUITAR 2:

 

e|-----------------------------------------------------------------------------|

B|--10--10--10--9--------------------------------------------------------------|

G|-----------------11--9--------------9-/-11--11--11-\-9--9--9------9----------|

D|------------------------11--11--11-----------------------------9-----12--11--|

A|-----------------------------------------------------------------------------|

E|-----------------------------------------------------------------------------|

 

GUITAR 1:

 

e|---------------------------------------------------------------|

B|---------------------------------------------------------------|

G|---------------6--6--6--6--6---7--7---9--9--9---2--2--2--2--2--|

D|--4--4--4--4---6--6--6--6--6---7--7---9--9--9---2--2--2--2--2--|

A|--4--4--4--4---4--4--4--4--4---5--5---7--7--7---0--0--0--0--0--|

E|--2--2--2--2---------------------------------------------------|

 

GUITAR 2:

 

e|---------------------------------------------------------|

B|---------------------------------------------------------|

G|----------9--9-/-11--11-\-9--9---------------------------|

D|--11--11------------------------12--11--12---11----------|

A|-------------------------------------------------12--12--|

E|---------------------------------------------------------|

 

 

Pre-Chorus/Pre-Estribllo:

 

GUITAR 1:

 

e|------------------------------------------------------------------|

B|------------------------------------------------------------------|

G|--9--9---9--9---10--10---10--10---11--11--11--11------------------|

D|--9--9---9--9---9---9----9---9----11--11--11--11---7--7--7--7--7--|

A|--7--7---7--7---8---8----8---8----9---9---9---9----7--7--7--7--7--|

E|---------------------------------------------------5--5--5--5--5--|

 

GUITAR 2:

 

e|-----------------------------------------------------------------------|

B|--9------9------9-------9---9--9------9--9-------10--9-----------------|

G|-----11-----11------11------------11--------11----------11--9--9-/-11--|

D|-----------------------------------------------------------------------|

A|-----------------------------------------------------------------------|

E|-----------------------------------------------------------------------|

 

GUITAR 3:

 

e|--12---12---12-(PH)---13--|

B|--------------------------|

G|--------------------------|

D|--------------------------|

A|--------------------------|

E|--------------------------|

 

GUITAR 1:

 

e|--------------------------------------------------|

B|--------------------------------------------------|

G|--7--7--7--7---8--8--8--8---9--9--9--9---6--6--6--|

D|--7--7--7--7---7--7--7--7---9--9--9--9---6--6--6--|

A|--5--5--5--5---6--6--6--6---7--7--7--7---4--4--4--|

E|--------------------------------------------------|

 

GUITAR 2:

 

e|-------------------------------------------|

B|--------------------9--10---10--10--10--9--|

G|--11--9--11--9--11-------------------------|

D|-------------------------------------------|

A|-------------------------------------------|

E|-------------------------------------------|

 

GUITAR 3:

 

e|--------------14---------------14---12----------------|

B|----------10---------------10-------12----14--14--14--|

G|------11---------------11-----------9-----13--13--13--|

D|--12---------------13---------------------11--11--11--|

A|------------------------------------------------------|

E|------------------------------------------------------|

 

 

Chorus/Estribillo:

 

GUITAR 1:

 

e|---------------------------------------------------------|

B|---------------------------------------------------------|

G|--7--7--7--7---9--9--9--9---11--11--11--11---6--6--6--6--|

D|--7--7--7--7---9--9--9--9---11--11--11--11---6--6--6--6--|

A|--5--5--5--5---7--7--7--7---9---9---9---9----4--4--4--4--|

E|---------------------------------------------------------|

 

GUITAR 2:

 

e|---------|------9-------------9------------------------9-------------|

B|---------|----------------------------------9--10--12-----12--10--9--|

G|--11--9--|--11-----11--9--11-----11--9--11---------------------------|

D|---------|-----------------------------------------------------------|

A|---------|-----------------------------------------------------------|

E|---------|-----------------------------------------------------------|

 

GUITAR 1:

 

e|-----------------------------------------------------|

B|-----------------------------------------------------|

G|--7--7--7--7---9--9--9--9----------------6--6--6--6--|

D|--7--7--7--7---9--9--9--9---7--7--7--7---6--6--6--6--|

A|--5--5--5--5---7--7--7--7---7--7--7--7---4--4--4--4--|

E|----------------------------5--5--5--5---------------|

 

GUITAR 2:

 

e|-----------------------------------------|

B|--------------------------------------9--|

G|--11----9--11--9---------------9--10-----|

D|------------------11--9--11--------------|

A|-----------------------------------------|

E|-----------------------------------------|

 

GUITAR 1:

 

e|---------------------------------------------------------|

B|---------------------------------------------------------|

G|--7--7--7--7---9--9--9--9---11--11--11--11---6--6--6--6--|

D|--7--7--7--7---9--9--9--9---11--11--11--11---6--6--6--6--|

A|--5--5--5--5---7--7--7--7---9---9---9---9----4--4--4--4--|

E|---------------------------------------------------------|

 

GUITAR 2:

 

e|------9-------------9------------------------9-------------|

B|----------------------------------9--10--12-----12--10--9--|

G|--11-----11--9--11-----11--9--11---------------------------|

D|-----------------------------------------------------------|

A|-----------------------------------------------------------|

E|-----------------------------------------------------------|

 

GUITAR 1:

 

e|-------------------------------------------------------------|

B|-------------------------------------------------------------|

G|--7--7--7--7---9--9--9--9---11--11--11--11---12--12--12--12--|

D|--7--7--7--7---9--9--9--9---11--11--11--11---12--12--12--12--|

A|--5--5--5--5---7--7--7--7---9---9---9---9----10--10--10--10--|

E|-------------------------------------------------------------|

 

GUITAR 2:

 

e|--------9-------------------------9-------------|

B|-----------12---9--------10--12------12--10--9--|

G|--11---------------11---------------------------|

D|------------------------------------------------|

A|------------------------------------------------|

E|------------------------------------------------|

 

GUITAR 1:

 

e|---------------------------------------------------------|

B|---------------------------------------------------------|

G|--7--7--7--7---9--9--9--9---11--11--11--11---6--6--6--6--|

D|--7--7--7--7---9--9--9--9---11--11--11--11---6--6--6--6--|

A|--5--5--5--5---7--7--7--7---9---9---9---9----4--4--4--4--|

E|---------------------------------------------------------|

 

GUITAR 2:

 

e|------9-------------9------------------------9-------------|

B|----------------------------------9--10--12-----12--10--9--|

G|--11-----11--9--11-----11--9--11---------------------------|

D|-----------------------------------------------------------|

A|-----------------------------------------------------------|

E|-----------------------------------------------------------|

 

GUITAR 1:

 

e|-----------------------------------------------------|

B|-----------------------------------------------------|

G|--7--7--7--7---7--7--7--7---9--9--9--9---10--10--10--|

D|--7--7--7--7---7--7--7--7---9--9--9--9---9---9---9---|

A|--5--5--5--5---5--5--5--5---7--7--7--7---8---8---8---|

E|-----------------------------------------------------|

 

GUITAR 2:

 

e|----------------------------------------------|

B|------------------------12--9---9--12--9------|

G|--11---11--9--11--------------------------11--|

D|---------------------9------------------------|

A|----------------------------------------------|

E|----------------------------------------------|

 

Outro:

 

GUITAR 1:

 

e|---------------------------------------------------------------|

B|---------------------------------------------------------------|

G|--7--7--7--7---9--9--9--9---11--11---11--11---11--11---11--11--|

D|--7--7--7--7---9--9--9--9---11--11---11--11---11--11---11--11--|

A|--5--5--5--5---7--7--7--7---9---9----9---9----9---9----9---9---|

E|---------------------------------------------------------------|

 

GUITAR 2:

 

e|-------------|-------------------------------------------------------------------|

B|------10--12-|--12--12-b--12--10-------12--12-b--12--10------------------10------|

G|--11---------|--------------------11---------------------11---9--10--11------11--|

D|-------------|-------------------------------------------------------------------|

A|-------------|-------------------------------------------------------------------|

E|-------------|-------------------------------------------------------------------|

 

 

Shunkan Sentimental - Tron544
00:00 / 00:00

©2019 by Fefe - Tron544

Sigueme en:

  • YouTube - White Circle
  • Facebook - White Circle
  • Instagram - White Circle
  • Twitter - White Circle
This site was designed with the
.com
website builder. Create your website today.
Start Now