SHOUT BABY

MY HERO ACADEMIA

CHORDS ~ By Fefe (Tron544)

 

Chords used/Acordes utilizados:

Am: x.0.2.2.1.0
Bm: x.2.4.4.3.2  -  B7: x.2.1.2.0.2  -  B5: 7.9.9.x.x.x
C: x.3.2.0.1.0  -  C5: x.3.5.5.x.x
D: x.x.0.2.3.2  -  D7: x.x.0.2.1.2  -  D5: x.5.7.7.x.x
D/F#: 2.x.0.2.3.2
D#dim: x.x.1.2.1.2  -  D#(b5): x.6.7.8.x.x 
Em: 0.2.2.0.0.0  -  E5: x.7.9.9.x.x
F#(b5): x.9.10.11.x.x
G: 3.2.0.0.3.3

 

| Em | Bm | C | G |
| Em | Bm | C | D |

 


             G             Em
   Itsu kara watashi konna fuu ni
         C         D      G
   Gaman tsuyoku nareteitan darou
          C    B7        Em
   Kodomo no koro kara nakimushi
         C          D            G
   Datte... Baka ni sareta no ni

 


   C5        D5 D#(b5) E5
   Naisho ni shiteite ne
           F#(b5)   B5     E5
   Nante zankoku na kotoba
     C5      D5 D(b5) E5
   Sakebigoe kasundeku
            C                       D7
   Arifureteru hazu no mirai ni wa tookute

 


     G     D/F#     Em
   Dare ni kikazu tomo wakaru
         C          Bm        Am        D
   Aitsu no moto ni wa todoki ya shinai
     G     D/F#     Em
   Doko ni tadoritsukeba ii?
         C        Bm       Am     B7
   Wakaranakute tada sugaritsuite
     C                 D
   Mainichi no fuan wo kakikesu hodo
   D#dim       Em
   Mune wo kogasu
    C                D
   Akogare nado kienai... Kawaritai

Shout Baby - Tron544
00:00 / 00:00
DONATE%20BUTTON%20(EN)_edited.png

TABS ~ By Fefe (Tron544)

 

Intro:

GUITAR (Lead):

e|----15-p14--------------------------------15-p14-----------------------15-----|
B|-----------15-12---------------------------------15-12--------------------15--|
G|------------------14--12--11--12-p11--------------------14--12--11--12--------|
D|-------------------------------------12---------------------------------------|
A|------------------------------------------------------------------------------|
E|------------------------------------------------------------------------------|

e|----15-p14-----------------------------------------------------------------------|
B|-----------15-12----------------------------------------12-----------------------|
G|------------------14--12--11--12-p11--------11----14-12----14-12-11-12-12/14-----|
D|-------------------------------------12--12----12--------------------------------|
A|---------------------------------------------------------------------------------|
E|---------------------------------------------------------------------------------|


Verse/Estrofa:

GUITAR (Vocals):

e|------------|---------------------------------------------------|
B|--8-p7------|----------------------------------------------7/8--|
G|-------7----|----------------------7----------------------------|
D|---------9--|--7---/9-9------7--9-----7---\5-5----------9-------|
A|------------|---------------------------------------10----------|
E|------------|---------------------------------------------------|

e|--------------------------------------------------------|
B|--7------------------------------------------------7/8--|
G|------9-7---9-7-----------------------------------------|
D|-----------------7--9--10--9/10---\9-9----------9-------|
A|--------------------------------------------10----------|
E|--------------------------------------------------------|

e|-------------------------------------------------|
B|--7---------------7-----5/7---8-8----------------|
G|---------9--8--9---------------------------------|
D|---------------------9------------------7/9--7---|
A|-------------------------------------------------|
E|-------------------------------------------------|

e|-----------------------------------------------------|
B|-----------------------------------------------------|
G|-----------------------------------------------------|
D|------------10/12--7---------------------------------|
A|----10--10-------------10-9-10-10--------------------|
E|-----------------------------------------------------|


Pre-Chorus/Pre-Estribillo:

GUITAR (Vocals):

e|-------------------------7-------------------8---------|
B|--7--8--10--8--7--8--10-----10/12---------------10-p8--|
G|-------------------------------------------------------|
D|-------------------------------------------------------|
A|-------------------------------------------------------|
E|-------------------------------------------------------|

e|---------------------------------------------------|
B|------8-8/h10---8-7---------------------------7/8--|
G|--9------------------------------------------------|
D|---------------------9--7--7/9---------------------|
A|---------------------------------------------------|
E|---------------------------------------------------|

GUITAR (Lead):

e|------------------7-7-7-7-#-#------------------|
B|------------------8-8-8-8-#-#-10b--r-----------|
G|------------------9-9-9-9-#-#------------------|
D|-----------------------------------------------|
A|-----------------------------------------------|
E|------------------------------------------12\--|

GUITAR (Vocals):

e|-------------------------10----------------------------------|
B|--7--8--10--8--7--8--10------10/12--------------13-12--------|
G|------------------------------------------------------14-12--|
D|---------------------------------------------14--------------|
A|-------------------------------------------------------------|
E|-------------------------------------------------------------|

GUITAR (Lead): WAH-WAH

e|--#-#-8-8-#-#-8-8-#-#-8-8-#-#-8-8-#-#-10-10-#-#-10-10-#-#-10-/12-12-12-12-12--|
B|--#-#-----#-#-----#-#-----#-#-----#-#-------#-#-------#-#---------------------|
G|--#-#-5-5-#-#-5-5-#-#-5-5-#-#-5-5-#-#-7--7--#-#-7--7--#-#-7--/9--9--9--9--9---|
D|------------------------------------------------------------------------------|
A|------------------------------------------------------------------------------|
E|------------------------------------------------------------------------------|

GUITAR (Vocals):

e|---------------------------------------------------------------------|
B|---------------------------------------------------------------------|
G|--12-----11-12-----11-12------12--14/16--14h16---14-16/17------------|
D|------14--------14--------12-----------------------------------------|
A|---------------------------------------------------------------------|
E|---------------------------------------------------------------------|

GUITAR (Lead): WAH-WAH

e|---------------------------------------10-10-10-10-12-12-12-12-14-14-------|
B|-------12------12----------------------------------------------------------|
G|--14b-----14b-----14b---14-12----12----7--7--7--7--9--9--9--9--11-11-------|
D|------------------------------14-------------------------------------------|
A|---------------------------------------------------------------------------|
E|---------------------------------------------------------------------------|

 


Chorus/Estribillo:

GUITAR (Vocals):

e|-----------|---------------------------------------------------------------------|
B|--12/13----|--12--------------12--12h15-----------------------------------13/15--|
G|-----------|----------12--14-------------12--11------11--11h12--------12---------|
D|-----------|-------------------------------------14---------------12-------------|
A|-----------|---------------------------------------------------------------------|
E|-----------|---------------------------------------------------------------------|

GUITAR (Lead):

e|-------------------------------------------------------------|
B|--8--8--#-8-#-#-7--#-7-#-7-#-#-8--8--#-8-#-#-8--#-8-#-8-#-#--|
G|--7--7--#-7-#-#-7--#-7-#-7-#-#-9--9--#-9-#-#-9--#-9-#-9-#-#--|
D|--9--9--#-9-#-#-7--#-7-#-7-#-#-9--9--#-9-#-#-9--#-9-#-9-#-#--|
A|-------------------------------------------------------------|
E|-------------------------------------------------------------|

GUITAR (Vocals):

e|----------------------------------------------------------------------|
B|--13---12-13-------------------------------------------------12/13----|
G|---------------12-12------12--14/16--14h16---14-16/17-----------------|
D|----------------------12----------------------------------------------|
A|----------------------------------------------------------------------|
E|----------------------------------------------------------------------|

GUITAR (Lead):

e|----------------------------------------------------------------|
B|--8---8---#-8--#-#-7--#-7-#-7-#-#-5--5--#-5-#-#-7--#-7-#-7-#-#--|
G|--9---9---#-9--#-#-7--#-7-#-7-#-#-5--5--#-5-#-#-7--#-7-#-7-#-#--|
D|--10--10--#-10-#-#-9--#-9-#-9-#-#-7--7--#-7-#-#-7--#-7-#-7-#-#--|
A|----------------------------------------------------------------|
E|----------------------------------------------------------------|

GUITAR (Vocals):

e|---------------------------------------------------------------------|
B|--12--------------12--12h15-----------------------------------13/15--|
G|----------12--14-------------12--11------11--11h12--------12---------|
D|-------------------------------------14---------------12-------------|
A|---------------------------------------------------------------------|
E|---------------------------------------------------------------------|

GUITAR (Lead):

e|-------------------------------------------------------------|
B|--8--8--#-8-#-#-7--#-7-#-7-#-#-8--8--#-8-#-#-8--#-8-#-8-#-#--|
G|--7--7--#-7-#-#-7--#-7-#-7-#-#-9--9--#-9-#-#-9--#-9-#-9-#-#--|
D|--9--9--#-9-#-#-7--#-7-#-7-#-#-9--9--#-9-#-#-9--#-9-#-9-#-#--|
A|-------------------------------------------------------------|
E|-------------------------------------------------------------|

GUITAR (Vocals):

e|------------------------------------------------------------------------|
B|--13---12-13------------------------------------------------------------|
G|---------------12-12------12--14/16--14h16---14-16/17---16-14-------12--|
D|----------------------12------------------------------------------------|
A|------------------------------------------------------------------------|
E|------------------------------------------------------------------------|

GUITAR (Lead):

e|----------------------------------------------------------------|
B|--8---8---#-8--#-#-7--#-7-#-7-#-#-5--5--#-5-#-#-7--#-7-#-7-#-#--|
G|--9---9---#-9--#-#-7--#-7-#-7-#-#-5--5--#-5-#-#-8--#-8-#-8-#-#--|
D|--10--10--#-10-#-#-9--#-9-#-9-#-#-7--7--#-7-#-#-7--#-7-#-7-#-#--|
A|----------------------------------------------------------------|
E|----------------------------------------------------------------|

GUITAR (Vocals):

e|--------------------------------------------------------------------------|
B|-------------------------------------------12/13--12----------------------|
G|-----------------14/16---14--12--11-12---------------14--11-12------------|
D|--12-12-12-12-12------------------------12--------------------------12----|
A|--------------------------------------------------------------------------|
E|--------------------------------------------------------------------------|

GUITAR (Lead):

e|--------------------------------------------------------------|
B|--8---8---#-8--#-#-7--#-7-#-7-#-#-7--#-7-#-#-8---8-8--8--8-8--|
G|--9---9---#-9--#-#-7--#-7-#-7-#-#-8--#-8-#-#-9---9-9--9--9-9--|
D|--10--10--#-10-#-#-7--#-7-#-7-#-#-7--#-7-#-#-9---9-9--9--9-9--|
A|--------------------------------------------------------------|
E|--------------------------------------------------------------|

GUITAR (Vocals):

e|-------------------------------------------------------------------|
B|--15/17--15--------------------------------------------------------|
G|-------------15-p14-12--------12--14/16--14----------11---12-12----|
D|--------------------------12----------------------12---------------|
A|-------------------------------------------------------------------|
E|-------------------------------------------------------------------|

GUITAR (Lead):

e|--3--3-3--3-3-3-3--3-3--3-3-3-5--5-5-5-5-5-5---------|
B|--5--5-5--5-5-5-5--5-5--5-5-5-7--7-7-7-7-7-7---------|
G|--5--5-5--5-5-5-5--5-5--5-5-5-7--7-7-7-7-7-7---------|
D|--5--5-5--5-5-5-5--5-5--5-5-5-7--7-7-7-7-7-7---------|
A|--3--3-3--3-3-3-3--3-3--3-3-3-5--5-5-5-5-5-5---------|
E|-----------------------------------------------------|

©2015 by Fefe - Tron544

Sigueme en:

  • YouTube - White Circle
  • Facebook - White Circle
  • Instagram - White Circle
  • Twitter - White Circle
This site was designed with the
.com
website builder. Create your website today.
Start Now