~ SHOUJO S ~

TABLATURAS ~ By Fefe - Tron544

 

Intro:

 

GUITAR 1:

 

e|---------------------------------------------------------|

B|---------------------------------------------------------|

G|--8--8----------8--8----------8--8----------8--8---------|

D|--8--8---6--6---8--8---6--6---8--8---6--6---8--8---6--6--|

A|--6--6---6--6---6--6---6--6---6--6---6--6---6--6---6--6--|

E|---------4--4----------4--4----------4--4----------4--4--|

 

GUITAR 3:

 

e|---------------------------------------------------------------------------------------|

B|------16--14----------------------------------------------11--11--13--14---14--13--11--|

G|--------------15--13---11--13--13-b--13--11---------------11--11--13--14---14--13--11--|

D|--13-----------------------------------------13--11--13--------------------------------|

A|---------------------------------------------------------------------------------------|

E|---------------------------------------------------------------------------------------|

 

 

Verse/Estrofa:

 

GUITAR 1:

 

e|---------------------------------------------------------|

B|---------------------------------------------------------|

G|--8--8-----------------4--4---8--8-----------------4--4--|

D|--8--8---4--4---6--6---4--4---8--8---4--4---6--6---4--4--|

A|--6--6---4--4---6--6---2--2---6--6---4--4---6--6---2--2--|

E|---------2--2---4--4-----------------2--2---4--4---------|

 

GUITAR 2:

 

e|---------------------------------------------------------------|

B|--11-----------------------------------------------11----------|

G|------13--11--13--11------11--11--13---11--13--11--------------|

D|----------------------13-------------------------------13--13--|

A|---------------------------------------------------------------|

E|---------------------------------------------------------------|

 

GUITAR 1:

 

e|---------------------------------------------------------|

B|---------------------------------------------------------|

G|--8--8-----------------4--4---8--8-----------------4--4--|

D|--8--8---4--4---6--6---4--4---8--8---4--4---6--6---4--4--|

A|--6--6---4--4---6--6---2--2---6--6---4--4---6--6---2--2--|

E|---------2--2---4--4-----------------2--2---4--4---------|

 

GUITAR 2:

 

e|-------------------------------------------------------|

B|--11---------------------------------------------------|

G|------13--11--13--11------11---11--13--11--13--11------|

D|----------------------13---------------------------13--|

A|-------------------------------------------------------|

E|-------------------------------------------------------|

 

GUITAR 3:

 

e|---------------------------|

B|---------------------------|

G|--5--5--5--5---4--4--4--4--|

D|---------------------------|

A|--3--3--3--3---2--2--2--2--|

E|---------------------------|

 

 

Pre-Chorus/Pre-Estribillo:

 

GUITAR 1:

 

e|-----------------------------------------------------|

B|-----------------------------------------------------|

G|--4--4--4--4-----------------------------------------|

D|--4--4--4--4---4--4--4--4---6--6--6--6---4--4--4--4--|

A|--2--2--2--2---4--4--4--4---6--6--6--6---4--4--4--4--|

E|---------------2--2--2--2---4--4--4--4---2--2--2--2--|

 

GUITAR 2:

 

e|-----------------------------------------------------------------------------------------------------------|

B|--------------------------11------------------------------11-----------------------------------------------|

G|--11--11--13--11--11--13------13--11--------------------------------------11---11--11--11--11--13--11--10--|

D|--------------------------------------13--13--11--13--13------13--11--11-----------------------------------|

A|-----------------------------------------------------------------------------------------------------------|

E|-----------------------------------------------------------------------------------------------------------|

 

GUITAR 3:

 

e|----------------------------------------|

B|----------------------------------------|

G|--4------------------------8---10---11--|

D|---------4------6------4----------------|

A|--2------------------------6---8----9---|

E|---------2------4------2----------------|

 

GUITAR 1:

 

e|-----------------------------------------------------------------|

B|-----------------------------------------------------------------|

G|--4--4--4--4-----------------------------------------------------|

D|--4--4--4--4---4--4--4--4---6--6--6--6--6--6--6---8--8--8--8--8--|

A|--2--2--2--2---4--4--4--4---6--6--6--6--6--6--6---8--8--8--8--8--|

E|---------------2--2--2--2---4--4--4--4--4--4--4---6--6--6--6--6--|

 

GUITAR 2:

 

e|-------------------------------------------------------|

B|-----------------------11--------------------------11--|

G|-------11--13--11--13------13--11----------------------|

D|--13-------------------------------13--11--13--13------|

A|-------------------------------------------------------|

E|-------------------------------------------------------|

 

GUITAR 3:

 

e|-------------------------------------------|

B|-------------------------------------------|

G|--4------------------------------------15--|

D|---------4------6--------------12--15--15--|

A|--2--------------------13--13--------------|

E|---------2------4--------------------------|

 

 

First Chorus/Primer Estribillo:

 

GUITAR 1:

 

e|-------------------------------------------------------------------------------|

B|-------------------------------------------------------------------------------|

G|---------------4--4--4--4---8--8--8--8-----------------------------------------|

D|--6--6--6--6---4--4--4--4---8--8--8--8---4--4--4--4---6--6--6--6---8--8--8--8--|

A|--6--6--6--6---2--2--2--2---6--6--6--6---4--4--4--4---6--6--6--6---8--8--8--8--|

E|--4--4--4--4-----------------------------2--2--2--2---4--4--4--4---6--6--6--6--|

 

GUITAR 2:

 

e|--------------|--------------------------------------------------------------|

B|--------------|--11--11--11--11--11--11--11----------------------11----------|

G|----------11--|------------------------------13--11--13--11--13--------------|

D|--11--13------|------------------------------------------------------13--13--|

A|--------------|--------------------------------------------------------------|

E|--------------|--------------------------------------------------------------|

 

GUITAR 3:

 

e|---------------------------------------------------------------------------|

B|--11--11--11--11--11--11--11--------------11-------------------11------11--|

G|-------------------------------------------------------------------13------|

D|----------------------------------13--13------13--11---13--13--------------|

A|---------------------------------------------------------------------------|

E|---------------------------------------------------------------------------|

 

GUITAR 1:

 

e|---------------------------------------------------------------------------------------------------------|

B|---------------------------------------------------------------------------------------------------------|

G|--8--8--8--8-----------------------------4--4--4--4---8--8--8--8-----------------------------------------|

D|--8--8--8--8---4--4--4--4---6--6--6--6---4--4--4--4---8--8--8--8---4--4--4--4---6--6--6--6---8--8--8--8--|

A|--6--6--6--6---4--4--4--4---6--6--6--6---2--2--2--2---6--6--6--6---4--4--4--4---6--6--6--6---8--8--8--8--|

E|---------------2--2--2--2---4--4--4--4-----------------------------2--2--2--2---4--4--4--4---6--6--6--6--|

 

GUITAR 2:

 

e|----------------------------------------------------------|

B|--11--11--11--11------------------------------11----------|

G|------------------13--11--13--11--13--11--13--------------|

D|----------------------------------------------------------|

A|--------------------------------------------------13--13--|

E|----------------------------------------------------------|

 

GUITAR 3:

 

e|----------------------------------------------------------------------|

B|--11--11--11--11--------------11----------------------11--11------11--|

G|--------------------------------------------------------------13------|

D|----------------------13--13------13--11--11--13--13------------------|

A|----------------------------------------------------------------------|

E|----------------------------------------------------------------------|

 

GUITAR 1:

 

e|-------------------------------------------------------------------------------------------|

B|-------------------------------------------------------------------------------------------|

G|--4--4--4--4---6--6--6--6---8--8--8--8-----------------------------------------------------|

D|--4--4--4--4---6--6--6--6---8--8--8--8---6--6--6--6---9--9--9--9--9--9--9---9--9--9--9--9--|

A|--2--2--2--2---4--4--4--4---6--6--6--6---6--6--6--6---9--9--9--9--9--9--9---9--9--9--9--9--|

E|-----------------------------------------4--4--4--4---7--7--7--7--7--7--7---7--7--7--7--7--|

 

GUITAR 2:

 

e|------------------------------------------------------------------|

B|----------------------11--12--11------------------------------11--|

G|--11--11--13--11--13--------------13--11--11--11--10--------------|

D|------------------------------------------------------13--13------|

A|------------------------------------------------------------------|

E|------------------------------------------------------------------|

 

GUITAR 3:

 

e|------------------------------------------------------------------------------------------------|

B|------------------------------------------------------------------------------------------------|

G|--4--4--4--4---6--6--6--6---8--8--8--8------------------------------------------------------16--|

D|-----------------------------------------6--6--6--6---9--9--9--9--9--9--9-----------13--16--16--|

A|--2--2--2--2---4--4--4--4---6--6--6--6--------------------------------------14--14--------------|

E|-----------------------------------------4--4--4--4---7--7--7--7--7--7--7-----------------------|

 

 

Second Chorus/Segundo Estribillo:

 

GUITAR 1:

 

e|---------------------------------------------------------------------------------------------------------|

B|---------------------------------------------------------------------------------------------------------|

G|--9--9--9--9-----------------------------5--5--5--5---9--9--9--9-----------------------------------------|

D|--9--9--9--9---5--5--5--5---7--7--7--7---5--5--5--5---9--9--9--9---5--5--5--5---7--7--7--7---9--9--9--9--|

A|--7--7--7--7---5--5--5--5---7--7--7--7---3--3--3--3---7--7--7--7---5--5--5--5---7--7--7--7---9--9--9--9--|

E|---------------3--3--3--3---5--5--5--5-----------------------------3--3--3--3---5--5--5--5---7--7--7--7--|

 

GUITAR 2:

 

e|--------------|--------------------------------------------------------------|

B|--------------|--12--12--12--12--12--12--12----------------------12----------|

G|----------12--|------------------------------14--12--14--12--14--------------|

D|--12--14------|------------------------------------------------------14--14--|

A|--------------|--------------------------------------------------------------|

E|--------------|--------------------------------------------------------------|

 

GUITAR 3:

 

e|---------------------------------------------------------------------------|

B|--12--12--12--12--12--12--12--------------12-------------------12------12--|

G|-------------------------------------------------------------------14------|

D|----------------------------------14--14------14--12---14--14--------------|

A|---------------------------------------------------------------------------|

E|---------------------------------------------------------------------------|

 

GUITAR 1:

 

e|---------------------------------------------------------------------------------------------------------|

B|---------------------------------------------------------------------------------------------------------|

G|--9--9--9--9-----------------------------5--5--5--5---9--9--9--9-----------------------------------------|

D|--9--9--9--9---5--5--5--5---7--7--7--7---5--5--5--5---9--9--9--9---5--5--5--5---7--7--7--7---9--9--9--9--|

A|--7--7--7--7---5--5--5--5---7--7--7--7---3--3--3--3---7--7--7--7---5--5--5--5---7--7--7--7---9--9--9--9--|

E|---------------3--3--3--3---5--5--5--5-----------------------------3--3--3--3---5--5--5--5---7--7--7--7--|

 

GUITAR 2:

 

e|----------------------------------------------------------|

B|--12--12--12--12------------------------------12----------|

G|------------------14--12--14--12--14--12--14--------------|

D|----------------------------------------------------------|

A|--------------------------------------------------14--14--|

E|----------------------------------------------------------|

 

GUITAR 3:

 

e|----------------------------------------------------------------------|

B|--12--12--12--12--------------12----------------------12--12------12--|

G|--------------------------------------------------------------14------|

D|----------------------14--14------14--12--12--14--14------------------|

A|----------------------------------------------------------------------|

E|----------------------------------------------------------------------|

 

GUITAR 1:

 

e|----------------------------------------|

B|----------------------------------------|

G|--5--5--5--5---7--7--7--7---9--9--9--9--|

D|--5--5--5--5---7--7--7--7---9--9--9--9--|

A|--3--3--3--3---5--5--5--5---7--7--7--7--|

E|----------------------------------------|

 

GUITAR 2:

 

e|-------------------------------------|

B|----------------------12--13--12-----|

G|--12--12--14--12--14--------------14-|

D|-------------------------------------|

A|-------------------------------------|

E|-------------------------------------|

 

GUITAR 3:

 

e|----------------------------------------|

B|----------------------------------------|

G|--5--5--5--5---7--7--7--7---9--9--9--9--|

D|----------------------------------------|

A|--3--3--3--3---5--5--5--5---7--7--7--7--|

E|----------------------------------------|

 

GUITAR 1:

 

e|-----------------------------------------------|

B|-----------------------------------------------|

G|-----------------------------------------------|

D|--7--7--7--7---10--10--10--10--10--10--10---9--|

A|--7--7--7--7---10--10--10--10--10--10--10---9--|

E|--5--5--5--5---8---8---8---8---8---8---8----7--|

 

GUITAR 2:

 

e|------------------------------|

B|--------------------------12--|

G|--12--12--12--11--------------|

D|------------------14--14------|

A|------------------------------|

E|------------------------------|

 

GUITAR 3:

 

e|--------------------------------------------------------------------------------|

B|--------------------------------------------12--12--12--12----------------------|

G|------------------------------------------------------------14--12--------------|

D|--7--7--7--7---10--10--10--10--10--10--10---------------------------14--12--14--|

A|--------------------------------------------------------------------------------|

E|--5--5--5--5---8---8---8---8---8---8---8----------------------------------------|

 

 

Outro:

 

GUITAR 1:

 

e|---------------------------------------------------------|

B|---------------------------------------------------------|

G|--9--9----------9--9----------9--9----------9--9---------|

D|--9--9---7--7---9--9---7--7---9--9---7--7---9--9---7--7--|

A|--7--7---7--7---7--7---7--7---7--7---7--7---7--7---7--7--|

E|---------5--5----------5--5----------5--5----------5--5--|

 

GUITAR 2:

 

e|------------------------------------------------------------------|

B|--12--12--12------------------------------------------------------|

G|--------------14--12--------------12------12------12------12------|

D|----------------------14--12--14------14------14------14------14--|

A|------------------------------------------------------------------|

E|------------------------------------------------------------------|

 

GUITAR 3:

 

e|----------------------------------------------------------------------------------------------------|

B|------17--15----------------------------------------------12--12--14--15---15--14--12---15--14--12--|

G|--------------16--14---12--14--14-b--14--12---------------12--12--14--15---15--14--12---15--14--12--|

D|--14-----------------------------------------14--12--14---------------------------------------------|

A|----------------------------------------------------------------------------------------------------|

E|----------------------------------------------------------------------------------------------------|

 

GUITAR 1:

 

e|--------------------------------|

B|--------------------------------|

G|--9--9----------9--9------------|

D|--9--9---7--7---9--9---7--7--7--|

A|--7--7---7--7---7--7---7--7--7--|

E|---------5--5----------5--5--5--|

 

GUITAR 2:

 

e|------------------------------------------------------------------|

B|--12--12--12------------------------------------------------------|

G|--------------14--12--------------12------12------12------12------|

D|----------------------14--12--14------14------14------14------14--|

A|------------------------------------------------------------------|

E|------------------------------------------------------------------|

 

GUITAR 3:

 

e|--------------------------------------------------------------|

B|-------------------------------------15--14--12---12--12--12--|

G|--12--14--14-b--14--12---------------15--14--12---12--12--12--|

D|------------------------14--12--14----------------------------|

A|--------------------------------------------------------------|

E|--------------------------------------------------------------|

 

 

Shoujo S - Tron544
00:00 / 00:00

©2019 by Fefe - Tron544

Sigueme en:

  • YouTube - White Circle
  • Facebook - White Circle
  • Instagram - White Circle
  • Twitter - White Circle
This site was designed with the
.com
website builder. Create your website today.
Start Now