SHINZOU WO SASAGEYO!

ATTACK ON TITAN

TABS ~ By Fefe (Tron544)

 

Intro:

GUITAR (Lead):

e|------------------------------------|-----|
B|------------------------------------|-----|
G|----9-#-10-#-7-#-9-#-5-#-7-#-4-#-5--|-----|
D|--7---------------------------------|--4--|
A|------------------------------------|-----|
E|------------------------------------|-----|

GUITAR (Rhythm):

e|--------------------------------------------------------------|-----|
B|--------------------------------------------------------------|-----|
G|--------------------------------------------------------------|-----|
D|-(7)-x-x-x--x-x-x--x-x-(5)-x-x-(3)-x-x-x--x-x-(2)-x-x-x--x-x--|--4--|
A|-(7)-x-x-x--x-x-x--x-x-(5)-x-x-(3)-x-x-x--x-x-(2)-x-x-x--x-x--|--4--|
E|-(5)-x-x-x--x-x-x--x-x-(3)-x-x-(1)-x-x-x--x-x-(0)-x-x-x--x-x--|--2--|


Verse/Estrofa:

GUITAR (Vocals):

e|-----------------------------------------------------------------------------------------------------|
B|-----------------------------------------------------------------------------------------------------|
G|----6--7--4--6--6--7--4------6--7--4--6--6--7--4------6--7--4--6--6--7--4--------6--7---4/6----------|
D|--4----------------------4-4----------------------4-4----------------------4-4-4------------------7--|
A|-----------------------------------------------------------------------------------------------------|
E|-----------------------------------------------------------------------------------------------------|

e|------------------------------|
B|------------------------------|
G|----9--10--7--9--9--10--7-----|
D|--7------------------------7--|
A|------------------------------|
E|------------------------------|

GUITAR (Rhythm):

e|---------------------------------------------------------------|
B|---------------------------------------------------------------|
G|---------------------------------------------------------------|
D|--(7)--x-x-x--x-x-x--x-x-x--x-x-x--x-x-x--x-x-x--x-x-(5)--x-x--|
A|--(7)--x-x-x--x-x-x--x-x-x--x-x-x--x-x-x--x-x-x--x-x-(5)--x-x--|
E|--(5)--x-x-x--x-x-x--x-x-x--x-x-x--x-x-x--x-x-x--x-x-(3)--x-x--|

GUITAR (Vocals):

e|------------------------------|
B|------------------------------|
G|----9--10--7--9--9--10--7-----|
D|--7------------------------7--|
A|------------------------------|
E|------------------------------|

GUITAR (Rhythm):

e|---------------------------------------------------------------|
B|---------------------------------------------------------------|
G|---------------------------------------------------------------|
D|--(3)--x-x-x--x-x-x--x-x-x--x-x-x--x-x-x--x-x-x--x-x-(2)--x-x--|
A|--(3)--x-x-x--x-x-x--x-x-x--x-x-x--x-x-x--x-x-x--x-x-(2)--x-x--|
E|--(1)--x-x-x--x-x-x--x-x-x--x-x-x--x-x-x--x-x-x--x-x-(0)--x-x--|

GUITAR (Vocals):

e|--------------------------------|
B|--------------------------------|
G|----9--10--7--9--9--10--7-------|
D|--7------------------------7-7--|
A|--------------------------------|
E|--------------------------------|

GUITAR (Rhythm):

e|---------------------------------------------------------------|
B|---------------------------------------------------------------|
G|--(7)--x-x-x--x-x-x--x-x-x--x-x-(5)--x-x-x--x-x-x--x-x-x--x-x--|
D|--(7)--x-x-x--x-x-x--x-x-x--x-x-(5)--x-x-x--x-x-x--x-x-x--x-x--|
A|--(5)--x-x-x--x-x-x--x-x-x--x-x-(3)--x-x-x--x-x-x--x-x-x--x-x--|
E|---------------------------------------------------------------|

GUITAR (Vocals):

e|-----------------------|
B|-----------------------|
G|----9--10---7/9--------|
D|--7--------------------|
A|-----------------------|
E|-----------------------|

GUITAR (Rhythm):

e|-----------------------------------------------------------------|
B|-----------------------------------------------------------------|
G|--(3)--x-x-x--x-x-x--x-x-x--x-x-(1)--x-x-x--x-x-(1)--x-x-x--x-x--|
D|--(3)--x-x-x--x-x-x--x-x-x--x-x-(2)--x-x-x--x-x-(2)--x-x-x--x-x--|
A|--(1)--x-x-x--x-x-x--x-x-x--x-x-(2)--x-x-x--x-x-(2)--x-x-x--x-x--|
E|--------------------------------(0)--x-x-x--x-x-(0)--x-x-x--x-x--|

 


Pre-Chorus/Pre-Estribillo:

GUITAR (Vocals):

e|--------------------------------------------------------------|
B|------------------5----------------------------5-7-5----------|
G|--6-4-----------6-----4-4/6----------6-4-------------4-4/6----|
D|------7-6-4-6-7----------------4-6-7-----7-6-4----------------|
A|--------------------------------------------------------------|
E|--------------------------------------------------------------|

GUITAR (Rhythm):

e|--------------------------------------------------------------------|
B|--------------------------------------------------------------------|
G|-----------(7)-x-7--(9)-x-9-----------------(7)-x-7--(9)-x-9--------|
D|--(4)-x-4--(7)-x-7--(9)-x-9--7--6--(4)-x-4--(7)-x-7--(9)-x-9--4--6--|
A|--(4)-x-4--(5)-x-5--(7)-x-7--7--7--(4)-x-4--(5)-x-5--(7)-x-7--4--7--|
E|--(2)-x-2--------------------5--4--(2)-x-2--------------------2--4--|

GUITAR (Vocals):

e|------------------------------------------------------------------|
B|---------------------------8-8------------------------------------|
G|--9-7-------------9-7----7--------9-7-------------9-7------7/9----|
D|------10-9-7-9-10-----10--------------10-9-7-9-10-------10--------|
A|------------------------------------------------------------------|
E|------------------------------------------------------------------|

GUITAR (Rhythm):

e|--------------------------------------------------------------------|
B|--------------------------------------------------------------------|
G|-----------------------------5--4--------------------2--2-2-1--1-1--|
D|--(7)-x-7--(3)-x-3--(7)-x-7--5--5--(7)-x-7--(3)-x-3--2--2-2-2--2-2--|
A|--(7)-x-7--(3)-x-3--(7)-x-7--3--2--(7)-x-7--(3)-x-3--2--2-2-2--2-2--|
E|--(5)-x-5--(1)-x-1--(5)-x-5--------(5)-x-5--(1)-x-1--0--0-0-0--0-0--|

GUITAR (Vocals):

e|-------------------------------------------------------------------------------------------------|
B|----------------------------------8--------------------8--------------------7---7-10-10---9-9----|
G|--9-7--------------7-9-7-------7-----9-7-------------9-----7-7/9---7-10---7---7------------------|
D|------10-9-7-9-10---------9-10-----------10-9-7-9-10---------------------------------------------|
A|-------------------------------------------------------------------------------------------------|
E|-------------------------------------------------------------------------------------------------|

GUITAR (Rhythm):

e|---------------------------------------------------------------------------------------------------|
B|----------------------------------------------------------------------------------------10----9----|
G|----------------------------------------------------------2----4----5----6----7----8----9-----9----|
D|--3--x-x-3--x-x-3--x-x-3--x-x-2--x-x-2--x-x-2--x-x-2--x-x-2----5----5----5----7----7----9-----9----|
A|--3--x-x-3--x-x-3--x-x-3--x-x-2--x-x-2--x-x-2--x-x-2--x-x-0----2----3----4----5----6----7-----7----|
E|--1--x-x-1--x-x-1--x-x-1--x-x-0--x-x-0--x-x-0--x-x-0--x-x------------------------------------------|

Shinzou wo Sasageyo! - Tron544
00:00 / 00:00
DONATE%20BUTTON%20(EN)_edited.png

Chorus/Estribillo:

GUITAR (Vocals):

e|-----|-------------------------------------------------------|
B|-----|------------6-6---5-5----------------------------------|
G|--5--|--5---7-7----------------5----5h7-5-4---------------5--|
D|-----|--------------------------------------7-5/7---5-5------|
A|-----|-------------------------------------------------------|
E|-----|-------------------------------------------------------|

GUITAR (Rhythm):

e|--------------------------------------------|
B|--------------------------------------------|
G|---------------------------------5----5--4--|
D|--7----9-----10--------3----5----5----5--5--|
A|--7----10----10--------3----5----3----3--2--|
E|--5----7-----8---------1----3---------------|

GUITAR (Vocals):

e|-------------------------------------------------------|
B|------------6-6---5-5-----------------6-10---9-9-------|
G|--5---7-7---------------7-5---5-7-4-7---------------8--|
D|-------------------------------------------------------|
A|-------------------------------------------------------|
E|-------------------------------------------------------|

GUITAR (Rhythm):

e|--------------------------------------|
B|--------------------------------------|
G|----------------------------2----1----|
D|------------------3----5----2----2----|
A|------------------3----5----2----2----|
E|------------------1----3----0----0----|

GUITAR (Vocals):

e|-----------------------------|
B|--------------9-9---8-8------|
G|--8---10-10------------------|
D|-----------------------------|
A|-----------------------------|
E|-----------------------------|

GUITAR (Rhythm):

e|-----------------------------------------------------------|
B|-----------------------------------------------------------|
G|--5--x-x-x--x-x-7--x-x-x--x-x-8--x-x-x--x-x-x--x-x---------|
D|--5--x-x-x--x-x-8--x-x-x--x-x-8--x-x-x--x-x-x--x-x-8--x-x--|
A|--3--x-x-x--x-x-5--x-x-x--x-x-6--x-x-x--x-x-x--x-x-8--x-x--|
E|---------------------------------------------------6--x-x--|

GUITAR (Vocals):

e|-----------------------------------|
B|-----------------------------------|
G|--8----8h10-8-7-----------------8--|
D|----------------10-8/10---8-8------|
A|-----------------------------------|
E|-----------------------------------|

GUITAR (Rhythm):

e|-----------------------------------------------------------|
B|-----------------------------------------------------------|
G|------------------------------8--x-x-x--x-x-x--x-x-7--x-x--|
D|--6--x-x-x--x-x-8--x-x-x--x-x-8--x-x-x--x-x-x--x-x-8--x-x--|
A|--6--x-x-x--x-x-8--x-x-x--x-x-6--x-x-x--x-x-x--x-x-5--x-x--|
E|--4--x-x-x--x-x-6--x-x-x--x-x------------------------------|

GUITAR (Vocals):

e|----------------------------------------------|--------|
B|--------------9-9---8-8-----------------------|--------|
G|--8---10-10---------------10-8---8-10-8-7-----|--------|
D|------------------------------------------10--|--8/10--|
A|----------------------------------------------|--------|
E|----------------------------------------------|--------|

GUITAR (Rhythm):

e|--------------------------------------------------------------------|
B|--------------------------------------------------------------------|
G|--5--x-x-x--x-x-7--x-x-x--x-x-8--x-x-x--x-x-x--x-x------------------|
D|--5--x-x-x--x-x-8--x-x-x--x-x-8--x-x-x--x-x-x--x-x-8--x-x--6--------|
A|--3--x-x-x--x-x-5--x-x-x--x-x-6--x-x-x--x-x-x--x-x-8--x-x--6--------|
E|---------------------------------------------------6--x-x--4--------|

 


Outro:

GUITAR (Lead):

e|---------------------------------------------|
B|---------------------------------------------|
G|-----12-#-13-#-10-#-12----12-#-13-#-10-#-12--|
D|--10-------------------10--------------------|
A|---------------------------------------------|
E|---------------------------------------------|

GUITAR (Rhythm):

e|-------------------------------------------------------------|
B|-------------------------------------------------------------|
G|-------------------------------------------------------------|
D|--10--x-x-x--x-x-x--x-x-8--x-x-10--x-x-x--x-x-x--x-x-8--x-x--|
A|--10--x-x-x--x-x-x--x-x-8--x-x-10--x-x-x--x-x-x--x-x-8--x-x--|
E|--8---x-x-x--x-x-x--x-x-6--x-x-8---x-x-x--x-x-x--x-x-6--x-x--|

GUITAR (Lead):

e|-----------------------------------------|
B|-----------------------------------------|
G|-----12-#-13-#-10-#-12-#-8-#-10-#-7-#-8--|
D|--10-------------------------------------|
A|-----------------------------------------|
E|-----------------------------------------|

GUITAR (Rhythm):

e|------------------------------------------------------------|
B|------------------------------------------------------------|
G|------------------------------------------------------------|
D|--10--x-x-x--x-x-x--x-x-8--x-x-6--x-x-x--x-x-5--x-x-x--x-x--|
A|--10--x-x-x--x-x-x--x-x-8--x-x-6--x-x-x--x-x-5--x-x-x--x-x--|
E|--8---x-x-x--x-x-x--x-x-6--x-x-4--x-x-x--x-x-3--x-x-x--x-x--|

GUITAR (Lead):

e|---------------------------------------------|
B|---------------------------------------------|
G|-----15-#-16-#-13-#-15----15-#-16-#-13-#-15--|
D|--13-------------------13--------------------|
A|---------------------------------------------|
E|---------------------------------------------|

GUITAR (Rhythm):

e|-----------------------------------------------------------|
B|-----------------------------------------------------------|
G|--8--x-x-x--x-x-x--x-x-6--x-x-8--x-x-x--x-x-x--x-x-6--x-x--|
D|--8--x-x-x--x-x-x--x-x-6--x-x-8--x-x-x--x-x-x--x-x-6--x-x--|
A|--6--x-x-x--x-x-x--x-x-4--x-x-6--x-x-x--x-x-x--x-x-4--x-x--|
E|-----------------------------------------------------------|

GUITAR (Lead):

e|----------------------------------------------|
B|----------------------------------------------|
G|-----15-#-16-#-13-#-15-#-11-#-13-#-10-#-11-8--|
D|--13------------------------------------------|
A|----------------------------------------------|
E|----------------------------------------------|

GUITAR (Rhythm):

e|-------------------------------------------------------------|
B|-------------------------------------------------------------|
G|--8--x-x-x--x-x-x--x-x-6--x-x-4--x-x-x--x-x-3--x-x-7--x-x-8--|
D|--8--x-x-x--x-x-x--x-x-6--x-x-4--x-x-x--x-x-3--x-x-6--x-x-8--|
A|--6--x-x-x--x-x-x--x-x-4--x-x-2--x-x-x--x-x-1--x-x-5--x-x-6--|
E|-------------------------------------------------------------|

©2015 by Fefe - Tron544

Sigueme en:

  • YouTube - White Circle
  • Facebook - White Circle
  • Instagram - White Circle
  • Twitter - White Circle
This site was designed with the
.com
website builder. Create your website today.
Start Now