~ SHIN BUDOKAI ANOTHER ROAD OPENING ~

TABLATURAS ~ By Fefe - Tron544

 

Intro:

 

e|----------------------------------------------|

B|----------------------------------------------|

G|-----------------7--9-------------------7--9--|

D|-----------------7--9-------------------7--9--|

A|--9--9--7--9--0--5--7----9--9--7--9--0--5--7--|

E|----------------------------------------------|

 

e|-------------------------------------------|

B|-------------------------------------------|

G|-----------------7--9----7--9--7--9--7--9--|

D|-----------------7--9----7--9--7--9--7--9--|

A|--9--9--7--9--0--5--7----5--7--5--7--5--7--|

E|-------------------------------------------|

 

 

Verse/Estrofa:

 

e|----------------------------------------------------------------------|

B|-------------------------------------------------------------5--7-----|

G|--6--6--4-----4-----4--6---------------------6--4-------4----------6--|

D|-----------7-----7--------4------4--7--4--7----------7----------------|

A|----------------------------------------------------------------------|

E|----------------------------------------------------------------------|

 

e|----------------------------------------------------------------------7-----|

B|---------------------------------------------7--5-------5-------5--------5--|

G|--6--6--4-----4-----4--6-----------------------------6-------6-----6--------|

D|-----------7-----7--------4------4--7--4--7---------------------------------|

A|----------------------------------------------------------------------------|

E|----------------------------------------------------------------------------|

 

 

Pre-Chorus/Pre-Estribillo:

 

e|--------------------------------|-------------------------------------5-----|

B|--------------------------------|----------------------------------5-----9--|

G|---7--7--6--4--6--7--6----------|--7--7--6--4--6--7--6----4--6--7-----------|

D|--------------------------4--7--|-------------------------------------------|

A|--------------------------------|-------------------------------------------|

E|--------------------------------|-------------------------------------------|

 

 

Chorus/Estribillo:

 

e|-----------------------------------------------------|-----------------------7--------------|

B|--7--9--10-------7--9--10--9-------------------------|--10--10--9--7--9--10-----7----7-h-9--|

G|------------7-----------------11--11--9-----6--9--9--|--------------------------------------|

D|-----------------------------------------9-----------|--------------------------------------|

A|-----------------------------------------------------|--------------------------------------|

E|-----------------------------------------------------|--------------------------------------|

 

e|--------------------------------------------------------|---------------------------------------------------|

B|--7--9--10-------7--9--10--9----------------------------|--7--9--10-------7--9--10--10b------10-------------|

G|------------7-----------------11--11--9-----6--9-----6--|------------7---------------------------9--11--11--|

D|-----------------------------------------9--------9-----|---------------------------------------------------|

A|--------------------------------------------------------|---------------------------------------------------|

E|--------------------------------------------------------|---------------------------------------------------|

 

 

Outro:

 

e|----------------------------------------------|----------------------------|

B|----------------------------------------------|----------------------------|

G|-----------------7--9-------------------7--9--|--7--9--7--9--7--9--11--11--|

D|-----------------7--9-------------------7--9--|--7--9--7--9--7--9--11--11--|

A|--9--9--7--9--0--5--7----9--9--7--9--0--5--7--|--5--7--5--7--5--7--9---9---|

E|----------------------------------------------|----------------------------|

 

Shin Budokai Another Road Opening - Tron544
00:00 / 00:00

©2019 by Fefe - Tron544

Sigueme en:

  • YouTube - White Circle
  • Facebook - White Circle
  • Instagram - White Circle
  • Twitter - White Circle
This site was designed with the
.com
website builder. Create your website today.
Start Now