~ SHARE THE WORLD ~

TABLATURAS ~ By Fefe - Tron544

 

Intro:

 

GUITAR 2:

 

e|-------------------------------------------|

B|--6--8--9--8--6---------6------------6--8--|

G|-----------------8---5-----8--6--5---------|

D|-------------------------------------------|

A|-------------------------------------------|

E|-------------------------------------------|

 

e|-------------------------------------|

B|--9---6--8--9--8--6--8--9-b--9-b--9--|

G|-------------------------------------|

D|-------------------------------------|

A|-------------------------------------|

E|-------------------------------------|

 

GUITAR 3:

 

e|------|

B|------|

G|--10--|

D|------|

A|------|

E|------|

 

GUITAR 1:

 

  /~~~~~~~~~~~~~~~~~~~~~~~~~~~~~~~~~~~~~~~~~( REPEAT x2 / REPITE x2 )~~~~~~~~~~~~~~~~~~~~~~~~~~~~~~~~~~~~~~~~~\

e|-------------------------------------------------------------------------------------------------------------|

B|------------------8-h-9--8----------------------------------------------8-h-9--8-----------------------------|

G|--7--7--7--7--10------------10--7---7--7--7--7--10--7---7--7--7--7--10------------10--7---7--7--7--7--10--7--|

D|-------------------------------------------------------------------------------------------------------------|

A|-------------------------------------------------------------------------------------------------------------|

E|-------------------------------------------------------------------------------------------------------------|

 

GUITAR 2:

 

  /~~~~~~~~~~~~~~~~~~~~~~~~~~~~~~~~~~~~~~~~~~( REPEAT x2 / REPITE x2 )~~~~~~~~~~~~~~~~~~~~~~~~~~~~~~~~~~~~~~~~~~\

e|---------------------------------------------------------------------------------------------------------------|

B|---------------------------------------------------------------------------------------------------------------|

G|--7--7--7--7--10-------------10--7---7--7--7--7--10--7---7--7--7--7--10-------------10--7---7--7--7--7--10--7--|

D|--7--7--7--7--10-------------10--7---7--7--7--7--10--7---7--7--7--7--10-------------10--7---7--7--7--7--10--7--|

A|--5--5--5--5--8----10-b--10--8---5---5--5--5--5--8---5---5--5--5--5--8----10-b--10--8---5---5--5--5--5--8---5--|

E|---------------------------------------------------------------------------------------------------------------|

 

GUITAR 3:

 

e|-------------------------|--8------------------10--|

B|--9--8--6--8--6----------|-----8--6--8--6----------|

G|---------------------10--|-------------------------|

D|-------------------------|-------------------------|

A|-------------------------|-------------------------|

E|-------------------------|-------------------------|

 

 

First Verse/Primera Estrofa:

 

GUITAR 1:

 

e|-------------------------------------------------------------------------------------------------------|

B|-------------------------------------------------------------------------------------------------------|

G|--5--5--5--7---5--5--5--7---5--5--5--5--5--5--5--5--7---5--5--5--7---5--5--5--7---5--5--5--5--5--5--7--|

D|-------------------------------------------------------------------------------------------------------|

A|-------------------------------------------------------------------------------------------------------|

E|-------------------------------------------------------------------------------------------------------|

 

GUITAR 2:

 

e|---------------------------------------------------------------------------------------------------------------|

B|---------------------------------------------------------------------------------------------------------------|

G|--7--7--7--7--10-------------10--7---7--7--7--7--10--7---7--7--7--7--10-------------10--7---7--7--7--7--10--7--|

D|--7--7--7--7--10-------------10--7---7--7--7--7--10--7---7--7--7--7--10-------------10--7---7--7--7--7--10--7--|

A|--5--5--5--5--8----10-b--10--8---5---5--5--5--5--8---5---5--5--5--5--8----10-b--10--8---5---5--5--5--5--8---5--|

E|---------------------------------------------------------------------------------------------------------------|

 

GUITAR 1:

 

e|---------------------------------------------------------------------------------------------------------------|

B|---------------------------------------------------------------------10--8-------------------------------------|

G|--5--5--5--7---5--5--5--7---5--5--5--5--5--5--5--5--7---5--5--5--7----------10--7---5--5--5--5--5--5--5--5--7--|

D|---------------------------------------------------------------------------------------------------------------|

A|---------------------------------------------------------------------------------------------------------------|

E|---------------------------------------------------------------------------------------------------------------|

 

GUITAR 2:

 

e|---------------------------------------------------------------------------------------------------------------|

B|---------------------------------------------------------------------------------------------------------------|

G|--7--7--7--7--10-------------10--7---7--7--7--7--10--7---7--7--7--7--10-------------10--7---7--7--7--7--10--7--|

D|--7--7--7--7--10-------------10--7---7--7--7--7--10--7---7--7--7--7--10-------------10--7---7--7--7--7--10--7--|

A|--5--5--5--5--8----10-b--10--8---5---5--5--5--5--8---5---5--5--5--5--8----10-b--10--8---5---5--5--5--5--8---5--|

E|---------------------------------------------------------------------------------------------------------------|

 

 

Pre-Chorus/Pre-Estribillo:

 

GUITAR 1:

 

e|--------------------------------------------------------------------------|

B|--------------------------------------------------------------------------|

G|--5---5---5---7------5---5---5---7------5---5---5---7------5---5---6---7--|

D|--5---5---5---7------5---5---5---7------5---5---5---7------5---5---5---7--|

A|--3---3---3---5------3---3---3---5------3---3---3---5------3---3---4---5--|

E|--------------------------------------------------------------------------|

 

GUITAR 2:

 

e|--------------------------------------------------------------------------|

B|--------------------------------------------------------------------------|

G|--5---5---5-/-7------5---5---5-/-7------5---5---5-/-7------5---5---6---7--|

D|--------------------------------------------------------------------------|

A|--------------------------------------------------------------------------|

E|--------------------------------------------------------------------------|

 

GUITAR 3:

 

e|----------------------------------------------------|

B|---------------------8--6--8--6---------------------|

G|--5---5---5-/-7----------------------5---5---5-/-7--|

D|----------------------------------------------------|

A|----------------------------------------------------|

E|----------------------------------------------------|

 

 

First Chorus/Primer Estribillo:

 

GUITAR 1:

 

e|-----------------------------------------------------------------------------|

B|-----------------------------------------------------------------------------|

G|--6---8----------------6---8----------------6---8-------------3---5-------5--|

D|--6---8---6--6--6--6---6---8---6--6--6--6---6---8---6--6--6---3---5---3---6--|

A|------6---6--6--6--6-------6---6--6--6--6-------6---6--6--6-------3---3---3--|

E|--6-------4--4--4--4---6-------4--4--4--4---6-------4--4--4---3-------1------|

 

GUITAR 2:

 

e|-----------------------------------------------------------------------|

B|--6--8--9--8--6---------6------------9--8--6---------6--6--8--9--8--9--|

G|-----------------8---5-----8--6--5------------8---8--------------------|

D|-----------------------------------------------------------------------|

A|-----------------------------------------------------------------------|

E|-----------------------------------------------------------------------|

 

GUITAR 1:

 

e|-----------------------------------------------------------------------------------------------|

B|-----------------------------------------------------------------------------------------------|

G|--6---5----------------3---5--------6---8---9--9--9--9---9--9--9--9---9--9--9--9---9--9--9--9--|

D|--6---5---6--6--6--6---3---5---3----6---8---9--9--9--9---9--9--9--9---9--9--9--9---9--9--9--9--|

A|--4---3---6--6--6--6-------3---3----4---6---7--7--7--7---7--7--7--7---7--7--7--7---7--7--7--7--|

E|----------4--4--4--4---3-------1---------------------------------------------------------------|

 

GUITAR 2:

 

e|------------------9--8--6-----------------------------------------------------------------------|

B|--9--8--6------------------9---6--8--9---6--8--9--8--6--8--9-b--9-b--9---9-b--9-b--9-b--9-b--9--|

G|-----------8---8--------------------------------------------------------------------------------|

D|------------------------------------------------------------------------------------------------|

A|------------------------------------------------------------------------------------------------|

E|------------------------------------------------------------------------------------------------|

 

 

Interlude/Intermedio:

 

GUITAR 1:

 

e|-------------------------------------------------------------------------------------------------------------|

B|------------------8-h-9--8----------------------------------------------8-h-9--8-----------------------------|

G|--7--7--7--7--10------------10--7---7--7--7--7--10--7---7--7--7--7--10------------10--7---7--7--7--7--10--7--|

D|-------------------------------------------------------------------------------------------------------------|

A|-------------------------------------------------------------------------------------------------------------|

E|-------------------------------------------------------------------------------------------------------------|

 

GUITAR 2:

 

e|---------------------------------------------------------------------------------------------------------------|

B|---------------------------------------------------------------------------------------------------------------|

G|--7--7--7--7--10-------------10--7---7--7--7--7--10--7---7--7--7--7--10-------------10--7---7--7--7--7--10--7--|

D|--7--7--7--7--10-------------10--7---7--7--7--7--10--7---7--7--7--7--10-------------10--7---7--7--7--7--10--7--|

A|--5--5--5--5--8----10-b--10--8---5---5--5--5--5--8---5---5--5--5--5--8----10-b--10--8---5---5--5--5--5--8---5--|

E|---------------------------------------------------------------------------------------------------------------|

 

GUITAR 3:

 

e|---------------------10--|

B|--9--8--6--8--6----------|

G|-------------------------|

D|-------------------------|

A|-------------------------|

E|-------------------------|

 

 

Second Verse/Segunda Estrofa:

 

GUITAR 1:

 

e|-------------------------------------------------------------------------------------------------------|

B|-------------------------------------------------------------------------------------------------------|

G|--5--5--5--7---5--5--5--7---5--5--5--5--5--5--5--5--7---5--5--5--7---5--5--5--7---5--5--5--5--5--5--7--|

D|-------------------------------------------------------------------------------------------------------|

A|-------------------------------------------------------------------------------------------------------|

E|-------------------------------------------------------------------------------------------------------|

 

GUITAR 2:

 

e|---------------------------------------------------------------------------------------------------------------|

B|---------------------------------------------------------------------------------------------------------------|

G|--7--7--7--7--10-------------10--7---7--7--7--7--10--7---7--7--7--7--10-------------10--7---7--7--7--7--10--7--|

D|--7--7--7--7--10-------------10--7---7--7--7--7--10--7---7--7--7--7--10-------------10--7---7--7--7--7--10--7--|

A|--5--5--5--5--8----10-b--10--8---5---5--5--5--5--8---5---5--5--5--5--8----10-b--10--8---5---5--5--5--5--8---5--|

E|---------------------------------------------------------------------------------------------------------------|

 

GUITAR 1:

 

e|---------------------------------------------------------------------------------------------------------------|

B|---------------------------------------------------------------------10--8-------------------------------------|

G|--5--5--5--7---5--5--5--7---5--5--5--5--5--5--5--5--7---5--5--5--7----------10--7---5--5--5--5--5--5--5--5--7--|

D|---------------------------------------------------------------------------------------------------------------|

A|---------------------------------------------------------------------------------------------------------------|

E|---------------------------------------------------------------------------------------------------------------|

 

GUITAR 2:

 

e|----------------------------------------------------------------------------------------------------------------|

B|----------------------------------------------------------------------------------------------------------------|

G|--7--7--7--7--10------------10--7---7--7--7--7--10--7----------------------------------------7--7--7--7--10--7--|

D|--7--7--7--7--10------------10--7---7--7--7--7--10--7----------------------------------------7--7--7--7--10--7--|

A|--5--5--5--5--8---10-b--10--8---5---5--5--5--5--8---5---10-b--10--10-b--10--10-b--10--8---5--5--5--5--5--8---5--|

E|----------------------------------------------------------------------------------------------------------------|

 

 

Pre-Chorus/Pre-Estribillo:

 

GUITAR 1:

 

e|--------------------------------------------------------------------------|

B|--------------------------------------------------------------------------|

G|--5---5---5---7------5---5---5---7------5---5---5---7------5---5---6---7--|

D|--5---5---5---7------5---5---5---7------5---5---5---7------5---5---5---7--|

A|--3---3---3---5------3---3---3---5------3---3---3---5------3---3---4---5--|

E|--------------------------------------------------------------------------|

 

GUITAR 2:

 

e|--------------------------------------------------------------------------|

B|--------------------------------------------------------------------------|

G|--5---5---5-/-7------5---5---5-/-7------5---5---5-/-7------5---5---6---7--|

D|--------------------------------------------------------------------------|

A|--------------------------------------------------------------------------|

E|--------------------------------------------------------------------------|

 

GUITAR 3:

 

e|----------------------------------------------------|

B|---------------------8--6--8--6---------------------|

G|--5---5---5-/-7----------------------5---5---5-/-7--|

D|----------------------------------------------------|

A|----------------------------------------------------|

E|----------------------------------------------------|

 

 

Second Chorus/Segundo Estribillo:

 

GUITAR 1:

 

e|-----------------------------------------------------------------------------|

B|-----------------------------------------------------------------------------|

G|--6---8----------------6---8----------------6---8-------------3---5-------5--|

D|--6---8---6--6--6--6---6---8---6--6--6--6---6---8---6--6--6---3---5---3---6--|

A|------6---6--6--6--6-------6---6--6--6--6-------6---6--6--6-------3---3---3--|

E|--6-------4--4--4--4---6-------4--4--4--4---6-------4--4--4---3-------1------|

 

GUITAR 2:

 

e|-----------------------------------------------------------------------|

B|--6--8--9--8--6---------6------------9--8--6---------6--6--8--9--8--9--|

G|-----------------8---5-----8--6--5------------8---8--------------------|

D|-----------------------------------------------------------------------|

A|-----------------------------------------------------------------------|

E|-----------------------------------------------------------------------|

 

GUITAR 1:

 

e|-----------------------------------------------------------------------------------------------|

B|-----------------------------------------------------------------------------------------------|

G|--6---5----------------3---5--------6---8---9--9--9--9---9--9--9--9---9--9--9--9---9--9--9--9--|

D|--6---5---6--6--6--6---3---5---3----6---8---9--9--9--9---9--9--9--9---9--9--9--9---9--9--9--9--|

A|--4---3---6--6--6--6-------3---3----4---6---7--7--7--7---7--7--7--7---7--7--7--7---7--7--7--7--|

E|----------4--4--4--4---3-------1---------------------------------------------------------------|

 

GUITAR 2:

 

e|------------------9--8--6------------------------------------------------------8------------------------|

B|--9--8--6------------------9---6--8--9---6--8--9--8--6--8--9-b--9-b--9------9-----9--8--8-h-9----8-h-9--|

G|-----------8---8---------------------------------------------------------8------------------------------|

D|--------------------------------------------------------------------------------------------------------|

A|--------------------------------------------------------------------------------------------------------|

E|--------------------------------------------------------------------------------------------------------|

 

GUITAR 1:

 

e|-----------------------------------------------------------------------------|

B|-----------------------------------------------------------------------------|

G|--6---8----------------6---8----------------6---8-------------3---5-------5--|

D|--6---8---6--6--6--6---6---8---6--6--6--6---6---8---6--6--6---3---5---3---6--|

A|------6---6--6--6--6-------6---6--6--6--6-------6---6--6--6-------3---3---3--|

E|--6-------4--4--4--4---6-------4--4--4--4---6-------4--4--4---3-------1------|

 

GUITAR 2:

 

e|-----------------------------------------------------------------------|

B|--6--8--9--8--6---------6------------9--8--6---------6--6--8--9--8--9--|

G|-----------------8---5-----8--6--5------------8---8--------------------|

D|-----------------------------------------------------------------------|

A|-----------------------------------------------------------------------|

E|-----------------------------------------------------------------------|

 

GUITAR 1:

 

e|-----------------------------------------------------------------------------------------------|

B|-----------------------------------------------------------------------------------------------|

G|--6---5----------------3---5--------6---8---9--9--9--9---9--9--9--9---9--9--9--9---9--9--9--9--|

D|--6---5---6--6--6--6---3---5---3----6---8---9--9--9--9---9--9--9--9---9--9--9--9---9--9--9--9--|

A|--4---3---6--6--6--6-------3---3----4---6---7--7--7--7---7--7--7--7---7--7--7--7---7--7--7--7--|

E|----------4--4--4--4---3-------1---------------------------------------------------------------|

 

GUITAR 2:

 

e|------------------9--8--6-----------------------------------------------------------------------|

B|--9--8--6------------------9---6--8--9---6--8--9--8--6--8--9-b--9-b--9---9-b--9-b--9-b--9-b--9--|

G|-----------8---8--------------------------------------------------------------------------------|

D|------------------------------------------------------------------------------------------------|

A|------------------------------------------------------------------------------------------------|

E|------------------------------------------------------------------------------------------------|

 

 

Outro:

 

GUITAR 1:

 

e|-------------------------------------------------------------------------------------------------------------|

B|------------------8-h-9--8----------------------------------------------8-h-9--8-----------------------------|

G|--7--7--7--7--10------------10--7---7--7--7--7--10--7---7--7--7--7--10------------10--7---7--7--7--7--10--7--|

D|-------------------------------------------------------------------------------------------------------------|

A|-------------------------------------------------------------------------------------------------------------|

E|-------------------------------------------------------------------------------------------------------------|

 

GUITAR 2:

 

e|---------------------------------------------------------------------------------------------------------------|

B|---------------------------------------------------------------------------------------------------------------|

G|--7--7--7--7--10-------------10--7---7--7--7--7--10--7---7--7--7--7--10-------------10--7---7--7--7--7--10--7--|

D|--7--7--7--7--10-------------10--7---7--7--7--7--10--7---7--7--7--7--10-------------10--7---7--7--7--7--10--7--|

A|--5--5--5--5--8----10-b--10--8---5---5--5--5--5--8---5---5--5--5--5--8----10-b--10--8---5---5--5--5--5--8---5--|

E|---------------------------------------------------------------------------------------------------------------|

 

GUITAR 3:

 

e|------|

B|------|

G|--10--|

D|------|

A|------|

E|------|

 

Share the World - Tron544
00:00 / 00:00

©2019 by Fefe - Tron544

Sigueme en:

  • YouTube - White Circle
  • Facebook - White Circle
  • Instagram - White Circle
  • Twitter - White Circle
This site was designed with the
.com
website builder. Create your website today.
Start Now