SEKAI WA KOI NI OCHITEIRU

AO HARU RIDE

CHORDS ~ By Fefe (Tron544)

 

Chords used/Acordes utilizados:

 

Am7: x.0.2.0.1.0
C: x.3.2.0.1.0
D: x.x.0.2.3.2  -  D/F#: 2.x.0.2.3.x
Em: 0.2.2.0.0.0  -  Emdim/A: x.0.1.0.0.0
G: 3.2.0.0.3.3

 

 

e|-----------------------------------------------------------------------------------|
B|--12------12------10---7---12------12------15------12------15------12------15------|
G|--12------12------12---7---12----------12------12------12------12------12------12--|
D|--12------12------12---7---14------------------------------------------------------|
A|-----------------------------------------------------------------------------------|
E|-----------------------------------------------------------------------------------|

 

| C | G | D | G |

 

 G                     D                Em
Surechigau kotoba ni chotto dake no koukai namida koborete

G                 D               Em               C      D     G
Isogashii kanjou kodou ni rinku suru... Chuuningu tashikametainda

 

Am7                D    Emdim/A   Em
Mokuteki bakka ni torawarete

 


e|------------------10------10--|
B|--------7--8--10------10------|
G|-----7------------------------|
D|--9---------------------------|
A|------------------------------|
E|------------------------------|

 

Am7          D
Kyou wa mou RESTART

 

e|--------------------------------------------------------------------|
B|----------12--13---15--13-------------------5-(NH)------------------|
G|------12----------------------------7-(NH)------------------5-(NH)--|
D|--12------------------------7-(NH)------------------5-(NH)----------|
A|--------------------------------------------------------------------|
E|--------------------------------------------------------------------|

 

 

 C            G            D             Em
Sekai wa koi ni ochiteiru hikari no ya mune wo sasu

 C           G             D   Em
Zenbu wakaritainda yo... "Nee, kikasete"

 C       D      Em   D/F# G
Tatta ichi-miri ga tookute

 C       D       G
Kakenuketa hibi ni

 C      D       Em D/F# G
Wasurenai wasurerarenai
 C       D
Kagayaku ichi peeji

 

e|--------------------|
B|--------------------|
G|-----------12-(NH)--|
D|--12-(NH)-----------|
A|--------------------|
E|--------------------|

TABS ~ CLICK HERE TO VIEW THEM!

 

* You need the software called GUITAR PRO 5

       ~> DOWNLOAD IT HERE <~

Sekai wa Koi ni Ochiteiru - Tron544
00:00 / 00:00
DONATE%20BUTTON%20(EN)_edited.png

TABS ~ By Fefe (Tron544)

 

Intro:

 

e|--------------------------------------------------------------------------------------|
B|--------------12----------------------12------------------12--13----------------------|
G|--12------12------14--12--12------12------14--12--12--------------12--14--12--11--12--|
D|------12----------------------12----------------------12------------------------------|
A|--------------------------------------------------------------------------------------|
E|--------------------------------------------------------------------------------------|

 

e|----------------------------------------------------------------------|
B|--------------12------------------15------------15------------15------|
G|--12------12------14--12--12----------12--------------11--12------12--|
D|------12----------------------12-----------12-------------------------|
A|----------------------------------------------------------------------|
E|----------------------------------------------------------------------|

 


Verse/Estrofa:

 

e|-------------------------------------------------------------------------------------------------|
B|-------------------------------------------------------------------------------------------------|
G|-------------------------------------------------------------------------------------------------|
D|--12--12--12--12--12--10--9--10---12--12--12--12--12--10--9--10--------9--------------9----------|
A|-----------------------------------------------------------------10-------12--10--10-----12--10--|
E|-------------------------------------------------------------------------------------------------|

 

e|---------------------------------------------------------------------------------------|
B|-----------------------------------------------------------------------12--------------|
G|-------------------------------------------------------------14--12--------14--12--11--|
D|--12--12--12--12--12--10--9--10---12--12--12--12--12--10--9----------------------------|
A|---------------------------------------------------------------------------------------|
E|---------------------------------------------------------------------------------------|

 

e|-------------------------------------|
B|-------12-----------12---------------|
G|--12-------12--12-------11--11-/-12--|
D|-------------------------------------|
A|-------------------------------------|
E|-------------------------------------|

 


Pre-Chorus/Pre-Estribillo:

 

e|------------------------------------------------------|
B|------------------12------------------------------12--|
G|--12------12--14------14--12------12------12--14------|
D|------14----------------------14------14--------------|
A|------------------------------------------------------|
E|------------------------------------------------------|

e|-----------------------------------------------------------|

B|------------------12---------------12----------12----------|

G|--12------12--14------14--12--12-------14--12------14--12--|

D|------14---------------------------------------------------|

A|-----------------------------------------------------------|

E|-----------------------------------------------------------|

 

e|----------------------------------------|
B|-------12--------------12---------------|
G|--12-------12--12--12------11--11-/-12--|
D|----------------------------------------|
A|----------------------------------------|
E|----------------------------------------|

 


Chorus/Estribillo:

 

e|--------------------------------------------------------------------------------------|
B|--------------12----------------------12------------------12--13----------------------|
G|--12------12------14--12--12------12------14--12--12--------------12--14--12--11--12--|
D|------12----------------------12----------------------12------------------------------|
A|--------------------------------------------------------------------------------------|
E|--------------------------------------------------------------------------------------|

 

e|----------------------------------------------------------------------|
B|--------------12------------------15------------15------------15------|
G|--12------12------14--12--12----------12--------------11--12------12--|
D|------12----------------------12-----------12-------------------------|
A|----------------------------------------------------------------------|
E|----------------------------------------------------------------------|

 

e|------------------------------------------------------------------------------------|
B|------------------12----------------------15-----------------------12---------------|
G|--12------12--14------14--12------12----------12---12------12--14-------14--12--12--|
D|------14----------------------14------14---------------14---------------------------|
A|------------------------------------------------------------------------------------|
E|------------------------------------------------------------------------------------|

 

e|---------------------------------------------------------------------------------------|
B|------------------12----------------------15-----------------------12--12--------------|
G|--12------12--14------14--12------12----------12---12------12--14----------14--12--12--|
D|------14----------------------14------14---------------14------------------------------|
A|---------------------------------------------------------------------------------------|
E|---------------------------------------------------------------------------------------|

©2015 by Fefe - Tron544

Sigueme en:

  • YouTube - White Circle
  • Facebook - White Circle
  • Instagram - White Circle
  • Twitter - White Circle
This site was designed with the
.com
website builder. Create your website today.
Start Now