~ SEIJAKU NO APOSTLE ~

TABLATURAS ~ By Fefe - Tron544

 

Intro:

GUITAR (Rhythm):

D|---------------------------------------------------------------------|
A|---------------------------------------------------------------------|
F|---------------------------------------------------------------------|
C|-------------------------------------------------------------3h5--5--|
G|-----3-5-3-----------------------------3-5-3------------3h5----------|
C|--0--------5-3-0-0-3h5--0-3h5--3h5--0--------5-3-0-3h5---------------|

GUITAR (Bass):

F|------------------------------------|
C|------------------------------------|
G|------------------------------------|
C|--0----------------0----------------|

GUITAR (Rhythm):

D|-----------------------------------------------------------|
A|-----------------------------------------------------------|
F|-----------------------------------------------------------|
C|-----------------------------------------------------------|
G|-----3-5-3-----------------------------3-5-3---------------|
C|--0--------5-3-0-0-3h5--0-3h5--3h5--0--------5-3-0---------|

GUITAR (Bass):

F|-----------------------------------------------------------|
C|-----------------------------------------------------------|
G|-----3-5-3-----------------------------3-5-3---------------|
C|--0--------5-3-0-0-3h5--0-3h5--3h5--0--------5-3-0---------|

GUITAR (Rhythm):

D|-----------------------------------------------|
A|-----------------------------------------------|
F|-----------------------------------------------|
C|--0---0---3---3---3--3-3-5---5---8---8---8--8--|
G|--0---0---3---3---3--3-3-5---5---8---8---8--8--|
C|--0---0---3---3---3--3-3-5---5---8---8---8--8--|

GUITAR (Lead):

D|--------------------------------------------------------------17/20--20----|
A|--18-17-15-17-18--18-17-15-17-18----18-17-15-17-18--15-17-18---------------|
F|---------------------------------------------------------------------------|
C|---------------------------------------------------------------------------|
G|---------------------------------------------------------------------------|
C|---------------------------------------------------------------------------|

GUITAR (Bass):

F|-----------------------------------------------|
C|-----------------------------------------------|
G|-----------------------------------------------|
C|--0---0---3---3---3--3-3-5---5---8---8---8--8--|

 


Verse/Estrofa:

GUITAR (Vocals):

D|------------------------------------------------------|
A|------------------------------------------------------|
F|------------------------------------------------------|
C|--------3--5--5/6-5--3-----------3-3-5-5-5/6-5--3-----|
G|--5--5---------------------5--5-----------------------|
C|------------------------------------------------------|

GUITAR (Rhythm):

D|----------------------------------------------------------|
A|----------------------------------------------------------|
F|----------------------------------------------------------|
C|----------------------------------------------------------|
G|----------------------------------------------------------|
C|--(0)(3)(5)(3h5)(0)(3)(5)(3h5)(0)(3)(5)(3h5)(0)(3)(5)(6)--|

GUITAR (Bass):

F|--------------------------------------------------------|
C|--------------------------------------------------------|
G|--------------------------------------------------------|
C|--0--3--5--3h5--0--3--5--3h5--0--3--5--3h5--0--3--5--6--|

GUITAR (Vocals):

D|----------------------------------------------|
A|----------------------------------------------|
F|----------------------------------------------|
C|----------------------------------------------|
G|--3/5--3/5----3/5--3/5----3/5--3/5------------|
C|----------------------------------------------|

GUITAR (Rhythm):

D|---------------------------------------------------------------|
A|---------------------------------------------------------------|
F|---------------------------------------------------------------|
C|---------------------------------------------------------------|
G|-----------------------------------------------(3h5)(3)--------|
C|--(0)(3)(5)(3h5)(0)(3)(5)(3h5)(0)(3)(5)(3h5)(0)--------(5)(3)--|

GUITAR (Bass):

F|-----------------------------------------------------------|
C|-----------------------------------------------------------|
G|-----------------------------------------------3h5--3------|
C|--0--3--5--3h5--0--3--5--3h5--0--3--5--3h5--0---------5-3--|

GUITAR (Vocals):

D|------------------------------------------------------|
A|------------------------------------------------------|
F|------------------------------------------------------|
C|--------3--5--5/6-5--3-----------3-3-5-5-5/6-5--3-----|
G|--5--5---------------------5--5-----------------------|
C|------------------------------------------------------|

GUITAR (Rhythm):

D|----------------------------------------------------------|
A|----------------------------------------------------------|
F|----------------------------------------------------------|
C|----------------------------------------------------------|
G|----------------------------------------------------------|
C|--(0)(3)(5)(3h5)(0)(3)(5)(3h5)(0)(3)(5)(3h5)(0)(3)(5)(6)--|

GUITAR (Bass):

F|--------------------------------------------------------|
C|--------------------------------------------------------|
G|--------------------------------------------------------|
C|--0--3--5--3h5--0--3--5--3h5--0--3--5--3h5--0--3--5--6--|

GUITAR (Vocals):

D|----------------------------------------------|
A|----------------------------------------------|
F|----------------------------------------------|
C|----------------------------------------------|
G|--3/5--3/5----3/5--3/5----3/5--3/5------------|
C|----------------------------------------------|

GUITAR (Rhythm):

D|--------------------------------------------------------|
A|--------------------------------------------------------|
F|--------------------------------------------------------|
C|--------------------------------------------------------|
G|---------------------------------------------(3)(4)(5)--|
C|--(0)(3)(5)(3h5)(0)(3)(5)(3h5)(0)(3)(5)(6)(7)-----------|

GUITAR (Bass):

F|------------------------------------------------------|
C|------------------------------------------------------|
G|---------------------------------------------3--4--5--|
C|--0--3--5--3h5--0--3--5--3h5--0--3--5--6--7-----------|

GUITAR (Vocals):

D|----------------------------------------------|
A|----------------------13/15--13/15------------|
F|------------10--12----------------------------|
C|--10--12--------------------------------------|
G|----------------------------------------------|
C|----------------------------------------------|

GUITAR (Rhythm):

D|---------------------------------------------|
A|---------------------------------------------|
F|---------------------7--7--7--7--7--7--7--7--|
C|---------------------7--7--7--7--7--7--7--7--|
G|---------------------5--5--5--5--5--5--5--5--|
C|--------------12\----------------------------|

GUITAR (Bass):

F|--------------------------------------------------|
C|--------------------------------------------------|
G|---------------------------------5-5-5-5-5-5-5-5--|
C|--0--------0--------0--0--0--/5-------------------|

 


Pre-Chorus/Pre-Estribillo:

GUITAR (Vocals):

D|--------------------------------------------------------------|
A|------10--11--11/13--11-10---------------10--10h11--10--------|
F|-------------------------------------12----------------12-----|
C|---------------------------------13---------------------------|
G|--------------------------------------------------------------|
C|--------------------------------------------------------------|

GUITAR (Rhythm):

D|------------------------------------------------|
A|------------------------------------------------|
F|------------------------------------------------|
C|--0-(0)-x--x--0----0--0--1-(1)-x--x--1----1--1--|
G|--0-(0)-x--x--0----0--0--1-(1)-x--x--1----1--1--|
C|--0-(0)-x--x--0----0--0--1-(1)-x--x--1----1--1--|

GUITAR (Bass):

F|--------------------------------------------------|
C|--------------3--3--------------------5--5--------|
G|--------5--5--------5--5--------6--6--------6--6--|
C|--0--0--------------------1--1--------------------|

GUITAR (Vocals):

D|--------------------------------------------------------------|
A|--------10--11--11/13--11-10-------13--13--13--13/14------10--|
F|----10--------------------------------------------------------|
C|--------------------------------------------------------------|
G|--------------------------------------------------------------|
C|--------------------------------------------------------------|

GUITAR (Rhythm):

D|-------------------------------------------------|
A|-------------------------------------------------|
F|-------------------------------------------------|
C|--3-(3)-x--x--3----3--3--5--5--5--5--7--7--7--7--|
G|--3-(3)-x--x--3----3--3--5--5--5--5--7--7--7--7--|
C|--3-(3)-x--x--3----3--3--5--5--5--5--7--7--7--7--|

GUITAR (Bass):

F|---------------------------------------------------|
C|---------------------------5--5--5--5--7--7--7--7--|
G|--------------/8--8--8--8--------------------------|
C|--3--3--3--3---------------------------------------|

GUITAR (Vocals):

D|-----------------------------------------------------------------|
A|--10h11--10-----------------------11/13---11---10------------10--|
F|-------------12--10--9-----------------------------10---12-------|
C|-------------------------10---10---------------------------------|
G|-----------------------------------------------------------------|
C|-----------------------------------------------------------------|

GUITAR (Rhythm):

D|------------------------------------------|
A|------------------------------------------|
F|------------------------------------------|
C|--8--------#--#-#--#-#--3--3--3--0--0--0--|
G|--8--------#--#-#--#-#--3--3--3--0--0--0--|
C|--8--------#--#-#--#-#--3--3--3--0--0--0--|

GUITAR (Bass):

F|-------------------------------------|
C|--8----------------------------------|
G|-------------------------------------|
C|-------------------3--3--3--0--0--0--|

GUITAR (Vocals):

D|--------------------------------------------------------|
A|--10h11------11--11--11--13--15--14------------14-14----|
F|--------------------------------------------------------|
C|--------------------------------------------------------|
G|--------------------------------------------------------|
C|--------------------------------------------------------|

GUITAR (Rhythm):

D|----------------------------------------------------|
A|----------------------------------------------------|
F|----------------------------------------------------|
C|--1--1--1--1--1--1--1--1--7-7--7-7--7-7--7-7--7-7---|
G|--1--1--1--1--1--1--1--1--7-7--7-7--7-7--7-7--7-7---|
C|--1--1--1--1--1--1--1--1--7-7--7-7--7-7--7-7--7-7---|

GUITAR (Bass):

F|-----------7/8--8--7----------------------------------|
C|--------8-------------8-------------------------------|
G|--6--6-------------------6----------------------------|
C|----------------------------7-7--7-7--7-7--7-7--7-7---|

Chorus/Estribillo:

GUITAR (Vocals):

D|-----|--11------11--10-8----------8--8--10--11--10-8----------|
A|--8--|--------------------11---8----------------------11---8--|
F|-----|--------------------------------------------------------|
C|-----|--------------------------------------------------------|
G|-----|--------------------------------------------------------|
C|-----|--------------------------------------------------------|

GUITAR (Rhythm):

D|-----------------------------------------------------------|
A|-----------------------------------------------------------|
F|--5--5-5--5-5-5--------------------------------------------|
C|--5--5-5--5-5-5-1--1-1--1-1-1-6--6-6--6-6-6-8--8-8--8-8-8--|
G|--3--3-3--3-3-3-1--1-1--1-1-1-6--6-6--6-6-6-8--8-8--8-8-8--|
C|----------------1--1-1--1-1-1-6--6-6--6-6-6-8--8-8--8-8-8--|

GUITAR (Lead):

D|-------------------------------------------------------------------------------|
A|------------------11-11-11-11-11-11-11-11-11-11-11-11-9-9-9-9-8-8-8-8-6-6-6-6--|
F|--8-8-8-8-8-8-8-8--------------------------------------------------------------|
C|------------------8--8--8--8--8--8--8--8--8--8--8--8--6-6-6-6-5-5-5-5-3-3-3-3--|
G|--6-6-6-6-6-6-6-6--------------------------------------------------------------|
C|-------------------------------------------------------------------------------|

GUITAR (Bass):

F|-------------------------------------------------------------------|
C|-------------------------------------------------------------------|
G|--3-3-3-3-3-3-3-3--------------------------------------------------|
C|------------------1-1-1-1-1-1-1-1-6-6-6-6-6-6-6-6-8-8-8-8-8-8-8-8--|

GUITAR (Vocals):

D|--11------11--10-8------10--10----------8-10-11-10-----|
A|-------------------11-----------------8-------------8--|
F|-------------------------------------------------------|
C|-------------------------------------------------------|
G|-------------------------------------------------------|
C|-------------------------------------------------------|

GUITAR (Rhythm):

D|-----------------------------------------------------------|
A|-----------------------------------------------------------|
F|--5--5-5--5-5-5-----------------------------3--3-3-5--5-5--|
C|--5--5-5--5-5-5-1--1-1--1-1-1-3--3-3--3-3-3-3--3-3-5--5-5--|
G|--3--3-3--3-3-3-1--1-1--1-1-1-3--3-3--3-3-3-1--1-1-3--3-3--|
C|----------------1--1-1--1-1-1-3--3-3--3-3-3----------------|

GUITAR (Lead):

D|--11-11-11-11-11-11-11-11-10-10-10-10-15-15-15-15-13-13-13-13-13-13-13-13-13-13-13-13-14-14-14-14--|
A|---------------------------------------------------------------------------------------------------|
F|--8--8--8--8--8--8--8--8--7--7--7--7--12-12-12-12-10-10-10-10-10-10-10-10-10-10-10-10-11-11-11-11--|
C|---------------------------------------------------------------------------------------------------|
G|---------------------------------------------------------------------------------------------------|
C|---------------------------------------------------------------------------------------------------|

GUITAR (Bass):

F|-------------------------------------------------------------------|
C|-------------------------------------------------------------------|
G|--3-3-3-3-3-3-3-3---------------------------------1-1-1-1-2-2-2-2--|
C|------------------1-1-1-1-1-1-1-1-3-3-3-3-3-3-3-3------------------|

GUITAR (Vocals):

D|--11------11--10-8----------8--8--10--11--10-8----------|
A|--------------------11---8----------------------11---8--|
F|--------------------------------------------------------|
C|--------------------------------------------------------|
G|--------------------------------------------------------|
C|--------------------------------------------------------|

GUITAR (Rhythm):

D|-----------------------------------------------------------|
A|-----------------------------------------------------------|
F|--5--5-5--5-5-5--------------------------------------------|
C|--5--5-5--5-5-5-1--1-1--1-1-1-6--6-6--6-6-6-8--8-8--8-8-8--|
G|--3--3-3--3-3-3-1--1-1--1-1-1-6--6-6--6-6-6-8--8-8--8-8-8--|
C|----------------1--1-1--1-1-1-6--6-6--6-6-6-8--8-8--8-8-8--|

GUITAR (Lead):

D|-------------------------------------------------------------------------------|
A|------------------11-11-11-11-11-11-11-11-11-11-11-11-9-9-9-9-8-8-8-8-6-6-6-6--|
F|--8-8-8-8-8-8-8-8--------------------------------------------------------------|
C|------------------8--8--8--8--8--8--8--8--8--8--8--8--6-6-6-6-5-5-5-5-3-3-3-3--|
G|--6-6-6-6-6-6-6-6--------------------------------------------------------------|
C|-------------------------------------------------------------------------------|

GUITAR (Bass):

F|-------------------------8-------------5--------10-8-7----|
C|------------------1-/-8-------6--6--8-----8--8---------8--|
G|--3-3-3-3-3-3-3-3-----------------------------------------|
C|----------------------------------------------------------|

GUITAR (Vocals):

D|--11------11--10-8------10--9--------9--------9--8------------------------------|
A|-------------------11--------------------11---------------14-14-14-14-14--14-b--|
F|--------------------------------------------------------------------------------|
C|--------------------------------------------------------------------------------|
G|--------------------------------------------------------------------------------|
C|--------------------------------------------------------------------------------|

GUITAR (Rhythm):

D|---------------------------------------------------------------------------|
A|---------------------------------------------------------------------------|
F|------------------------------6--#-6-#-#-6--6--6--6--6--5------------------|
C|--3--3-3--3-3-3-1--1-1--1-1-1-6--#-6-#-#-6--6--6--6--6--5------------------|
G|--3--3-3--3-3-3-1--1-1--1-1-1-4--#-4-#-#-4--4--4--4--4--3------------------|
C|--3--3-3--3-3-3-1--1-1--1-1-1----------------------------------------------|

GUITAR (Lead):

D|-------------------------------------------------------------------------------|
A|--6-6-6-6-6-6-6-6-4-4-4-4-4-4-4-4----------------------------------------------|
F|----------------------------------6--#-6-#-#-6--6--6--6--6--5------------------|
C|--3-3-3-3-3-3-3-3-1-1-1-1-1-1-1-1-6--#-6-#-#-6--6--6--6--6--5------------------|
G|----------------------------------4--#-4-#-#-4--4--4--4--4--3------------------|
C|-------------------------------------------------------------------------------|

GUITAR (Bass):

F|-------------------------------8-----------------------------------------------|
C|--10-10-10-10-10-10-10--1-/-8--------------------------------------------------|
G|------------------------------------4--#-4-#-#-4--4--4--4--4--3----------------|
C|-------------------------------------------------------------------------------|


Outro:

GUITAR (Vocals):

D|-------------------------------------|
A|-------------------------------------|
F|------------------------------16/18--|
C|-------------------------------------|
G|-------------------------------------|
C|-------------------------------------|

GUITAR (Rhythm):

D|-----------------------------------------------|
A|-----------------------------------------------|
F|-----------------------------------------------|
C|--0---0---3---3---3--3-3-5---5---3---3---3--3--|
G|--0---0---3---3---3--3-3-5---5---3---3---3--3--|
C|--0---0---3---3---3--3-3-5---5---3---3---3--3--|

GUITAR (Lead):

D|--------------------------------------------------------------17/20--20/22----|
A|--18-17-15-17-18--18-17-15-17-18----18-17-15-17-18--15-17-18------------------|
F|------------------------------------------------------------------------------|
C|------------------------------------------------------------------------------|
G|------------------------------------------------------------------------------|
C|------------------------------------------------------------------------------|

GUITAR (Bass):

F|-----------------------------------------------|
C|-----------------------------------------------|
G|-----------------------------------------------|
C|--0---0---3---3---3--3-3-5---5---3---3---3--3--|

GUITAR (Vocals):

D|---------------------------------------|
A|---------------------------------------|
F|--16/18--------------------------------|
C|---------------------------------------|
G|---------------------------------------|
C|---------------------------------------|

GUITAR (Rhythm):

D|-------------------------------------------------------------------------|
A|-------------------------------------------------------------------------|
F|-------------------------------------------------------------------------|
C|-------------------------------------------------------------------------|
G|-----3-5-3-----------------------------3-5-3-----------------------------|
C|--0--------5-3-0-0-3h5--0-3h5--3h5--0--------5-3-0-0-3h5--0-3h5--3h5--0--|

GUITAR (Bass):

F|-----------------------------------|
C|-----------------------------------|
G|-----------------------------------|
C|--0--------------------------------|

 

Seijaku no Apostle - Tron544
00:00 / 00:00

©2019 by Fefe - Tron544

Sigueme en:

  • YouTube - White Circle
  • Facebook - White Circle
  • Instagram - White Circle
  • Twitter - White Circle
This site was designed with the
.com
website builder. Create your website today.
Start Now