~ SECRET BASE ~KIMI GA KURETA MONO~ ~

TABLATURAS ~ By Fefe - Tron544

 

Intro:

 

GUITAR 2:

 

e|--------------|

B|--------------|

G|------11--13--|

D|--11----------|

A|--------------|

E|--------------|

 

GUITAR 1:

 

e|--6------4------6------6---6--|

B|--7------6------7------6------|

G|--8------6------6------6------|

D|------------------------------|

A|------------------------------|

E|------------------------------|

 

GUITAR 2:

 

e|------------------------------------------------------------------------------------------------------|

B|------11--11--11--11---11-----------------------------------------------------------------------------|

G|--13-----------------------13--13--13--13--13---13--11--11--11--11--11---11-------------------11--13--|

D|-----------------------------------------------------------------------------11--11--11---11----------|

A|------------------------------------------------------------------------------------------------------|

E|------------------------------------------------------------------------------------------------------|

 

GUITAR 1:

 

e|--6------4---9---6------6--|

B|--7------6-------7------6--|

G|--8------6-------6------6--|

D|---------------------------|

A|---------------------------|

E|---------------------------|

 

GUITAR 2:

 

e|--------------------------------------------------------------------------------------|

B|------11--11--11--11--11--11--14---11--11--11--11--------------11--10-/-11--------11--|

G|--13-----------------------------------------------13--11--13-----------------13------|

D|--------------------------------------------------------------------------------------|

A|--------------------------------------------------------------------------------------|

E|--------------------------------------------------------------------------------------|

 

GUITAR 1:

 

e|--6------4------2------9------|--7--|

B|--7------6------2----------7--|-----|

G|--8------6------3------6------|--4--|

D|------------------------------|-----|

A|------------------------------|-----|

E|------------------------------|-----|

 

GUITAR 2:

 

e|----------------------------------------------|

B|-------------------------11-------------------|

G|--13--11--10-/-11----13------13--11--10-/-11--|

D|----------------------------------------------|

A|----------------------------------------------|

E|----------------------------------------------|

 

 

Verse/Estrofa:

 

GUITAR 1:

 

e|---------------------------------------|

B|-----------------4------------------4--|

G|-----------3------------------3--------|

D|-----4--------4---------4--------4-----|

A|--2-----2------------------------------|

E|---------------------2-----2-----------|

 

GUITAR 2:

 

e|------------------------------------------------------------------------------------------------|

B|------------------------------------------------------------------------------------------------|

G|--11--11--11--11--11--11--11--11--11--10-----------11--11--11--11--11--11--11--11--10-----------|

D|------------------------------------------11---11--------------------------------------11---11--|

A|------------------------------------------------------------------------------------------------|

E|------------------------------------------------------------------------------------------------|

 

GUITAR 1:

 

e|---------------------------------------------4--|

B|------------------------6------------7-------6--|

G|-----------3---------6------------8------8---6--|

D|--------4---------6------------8-------------6--|

A|-----4---------4------------6----------------4--|

E|--2---------------------------------------------|

 

GUITAR 2:

 

e|------------------------------------------------------------------------|

B|------------------------------------------------------------------------|

G|--11--11--11--11--11--11--11--11--13------------------------------------|

D|--------------------------------------11--11---11------11--13--11-/-13--|

A|---------------------------------------------------13-------------------|

E|------------------------------------------------------------------------|

 

 

Pre-Chorus/Pre-Estribillo:

 

GUITAR 1:

 

e|-----------------------------------------6---4--|

B|-----------4------------6----------------7---6--|

G|--------3------------6---------------3---8---6--|

D|-----4------------6---------------4------8---6--|

A|--2------------4---------------4---------6---4--|

E|----------------------------2-------------------|

 

GUITAR 2:

 

e|----------|--------------------------------------------------------------------------------------------|

B|------11--|--------------------11-------------------11---------------------------------------------11--|

G|--13------|--13--11--------13------13--11-------13------13--11-----------------------------------------|

D|----------|----------13--------------------13-------------------11---11--11------11--13--11-/-13-------|

A|----------|------------------------------------------------------------------13------------------------|

E|----------|--------------------------------------------------------------------------------------------|

 

GUITAR 1:

 

e|-----------------------------------------2--|

B|-----------4------------6----------------2--|

G|--------3------------6---------------3---3--|

D|-----4------------6---------------4------4--|

A|--2------------4---------------4---------4--|

E|----------------------------2------------2--|

 

GUITAR 2:

 

e|---------------------------------------------------------|

B|-------------------11------------------------------------|

G|--13--11-------13------13--11---------------11-/-13--11--|

D|----------13--------------------13--13--13---------------|

A|---------------------------------------------------------|

E|---------------------------------------------------------|

 

 

Chorus/Estribillo:

 

GUITAR 2:

 

e|--------------|

B|--------------|

G|------11--13--|

D|--11----------|

A|--------------|

E|--------------|

 

GUITAR 1:

 

e|--2---2---4--4--4--4---6---6---4--4--4--4--|

B|--4---4---6--6--6--6---7---7---6--6--6--6--|

G|--4---4---6--6--6--6---8---8---6--6--6--6--|

D|--4---4---6--6--6--6---8---8---6--6--6--6--|

A|--2---2---4--4--4--4---6---6---4--4--4--4--|

E|-------------------------------------------|

 

GUITAR 2:

 

e|------------------------------------------------------------------------------------------------------|

B|------11--11--11--11---11-----------------------------------------------------------------------------|

G|--13-----------------------13--13--13--13--13---13--11--11--11--11--11---11-------------------11--13--|

D|-----------------------------------------------------------------------------11--11--11---11----------|

A|------------------------------------------------------------------------------------------------------|

E|------------------------------------------------------------------------------------------------------|

 

GUITAR 1:

 

e|--2---2---4--4--4--4---2---2---2--2--2--2--|

B|--4---4---6--6--6--6---2---2---2--2--2--2--|

G|--4---4---6--6--6--6---3---3---3--3--3--3--|

D|--4---4---6--6--6--6---4---4---4--4--4--4--|

A|--2---2---4--4--4--4---4---4---4--4--4--4--|

E|-----------------------2---2---2--2--2--2--|

 

GUITAR 2:

 

e|------------------------------------------------------------------------------------------|

B|------11--11--11--11--11--11--14---11--11--11--11--------------11--10-/-11----------------|

G|--13-----------------------------------------------13--11--13---------------------11--13--|

D|------------------------------------------------------------------------------11----------|

A|------------------------------------------------------------------------------------------|

E|------------------------------------------------------------------------------------------|

 

GUITAR 1:

 

e|--2---2---4--4--4--4--|

B|--4---4---6--6--6--6--|

G|--4---4---6--6--6--6--|

D|--4---4---6--6--6--6--|

A|--2---2---4--4--4--4--|

E|----------------------|

 

GUITAR 2:

 

e|-------------------------------------------------------------------------|

B|------11--11--11--11--11--11--11--11-------------------------------------|

G|--13----------------------------------13--13--13--13--13--13--13--13--13-|

D|-------------------------------------------------------------------------|

A|-------------------------------------------------------------------------|

E|-------------------------------------------------------------------------|

 

GUITAR 1:

 

e|--6---6---4--4--4--4--|

B|--7---7---6--6--6--6--|

G|--8---8---6--6--6--6--|

D|--8---8---6--6--6--6--|

A|--6---6---4--4--4--4--|

E|----------------------|

 

GUITAR 2:

 

e|-------------------------------------------------------|

B|-------------------------------------------------------|

G|--11--11--11--11--11--11--11-------------------11--13--|

D|------------------------------11--11--11---11----------|

A|-------------------------------------------------------|

E|-------------------------------------------------------|

 

GUITAR 1:

 

e|--2---2---4--4--4--4---2---2---2--2--2--2--|

B|--4---4---6--6--6--6---2---2---2--2--2--2--|

G|--4---4---6--6--6--6---3---3---3--3--3--3--|

D|--4---4---6--6--6--6---4---4---4--4--4--4--|

A|--2---2---4--4--4--4---4---4---4--4--4--4--|

E|-----------------------2---2---2--2--2--2--|

 

GUITAR 2:

 

e|--------------------------------------------------------------------------------------|

B|------11--11--11--11--11--11--14---11--11--11--11--------------11--10-/-11--------11--|

G|--13-----------------------------------------------13--11--13-----------------13------|

D|--------------------------------------------------------------------------------------|

A|--------------------------------------------------------------------------------------|

E|--------------------------------------------------------------------------------------|

 

GUITAR 1:

 

e|--2---2---4--4--4--4---2--|

B|--4---4---6--6--6--6---2--|

G|--4---4---6--6--6--6---3--|

D|--4---4---6--6--6--6---4--|

A|--2---2---4--4--4--4---4--|

E|-----------------------2--|

 

GUITAR 2:

 

e|----------------------------------------------|

B|-------------------------11-------------------|

G|--13--11--10-/-11----13------13--11--10-/-11--|

D|----------------------------------------------|

A|----------------------------------------------|

E|----------------------------------------------|

 

 

 

secret base ~Kimi ga Kureta Mono~ - Tron544
00:00 / 00:00

©2019 by Fefe - Tron544

Sigueme en:

  • YouTube - White Circle
  • Facebook - White Circle
  • Instagram - White Circle
  • Twitter - White Circle
This site was designed with the
.com
website builder. Create your website today.
Start Now