SCHOOLDAY

YANDERE SIMULATOR

TABS ~ By Fefe (Tron544)
 

UKULELE:

 

A|--4----4--------4---------4----------2----2--------2---------2---------|
E|--5-------5---------5---------5------4-------4---------4---------4-----|
C|--4----------4---------4---------4---4----------4---------4---------4--|
g|-----------------------------------------------------------------------|

 

BASS:

 

G|--------------------------------|
D|--------------------------------|
A|--0------0--0-------------------|
E|-------------------0------0--0--|

 

UKULELE:

 

A|--0------0--0------0--|
E|--2------2--1------0--|
C|--2------2--2------1--|
g|----------------------|

 

BASS:

 

G|--------------------------------|
D|--0------0--0-------------------|
A|-------------------0------0--0--|
E|--------------------------------|

 

UKULELE:

 

A|--4----4--------4---------4----------2----2--------2---------2----------0------0------0--|
E|--5-------5---------5---------5------4-------4---------4---------4------2------1------0--|
C|--4----------4---------4---------4---4----------4---------4---------4---2------2------1--|
g|-----------------------------------------------------------------------------------------|

 

BASS:

 

G|------------------------------------------------------------------|
D|------------------------------------0------0--0-------------------|
A|--0------0--0----------------------------------------0------0--0--|
E|-------------------0------0--0------------------------------------|

 

GUITAR:

 

e|---------------|--9----9---------9----------9-----------7---7--------7---------7---------|
B|---------------|--10------10---------10---------10------9------9---------9---------9-----|
G|--4------------|--9-----------9----------9----------9---9---------9---------9---------9--|
D|-------2-------|-------------------------------------------------------------------------|
A|------------0--|-------------------------------------------------------------------------|
E|---------------|-------------------------------------------------------------------------|

 

BASS:

 

G|--------------------------------|
D|--------------------------------|
A|--0------0--0-------------------|
E|-------------------0------0--0--|

 

GUITAR:

 

e|--5------5---5------5------5------5------5------7--|
B|--7------7---5------5------7------5------7------9--|
G|--7------7---6------6------7------6------7------9--|
D|---------------------------------------------------|
A|---------------------------------------------------|
E|---------------------------------------------------|

 

BASS:

 

G|------------------------------------------------------------------------------------------|
D|------------------------------------------------------------------------------------------|
A|-------------------4------4--4------5----5--5--5--4--2--0----2--4--5----5--5--5--7--9--7--|
E|--2------2--2-----------------------------------------------------------------------------|

 

GUITAR:

 

e|--9----9---------9----------9-----------7---7--------7---------7---------|
B|--10------10---------10---------10------9------9---------9---------9-----|
G|--9-----------9----------9----------9---9---------9---------9---------9--|
D|-------------------------------------------------------------------------|
A|-------------------------------------------------------------------------|
E|-------------------------------------------------------------------------|

 

BASS:

 

G|--------------------------------|
D|--------------------------------|
A|--0------0--0-------------------|
E|-------------------0------0--0--|

 

GUITAR:

 

e|--5------5---5------5------5------5------5------7--|
B|--7------7---5------5------7------5------7------9--|
G|--7------7---6------6------7------6------7------9--|
D|---------------------------------------------------|
A|---------------------------------------------------|
E|---------------------------------------------------|

 

BASS:

 

G|----------------------------------------------------------------------------------------------------------|
D|----------------------------------------------------------------------------------------------------------|
A|-------------------4------4--4------5----5--5--5--4--2--0----2--4--5----5--5--5--7--9--7------7--7--0-----|
E|--2------2--2------------------------------------------------------------------------------------------0--|

 

GUITAR:

 

e|--9----9---------9----------9-----------7---7--------7---------7---------|
B|--10------10---------10---------10------9------9---------9---------9-----|
G|--9-----------9----------9----------9---9---------9---------9---------9--|
D|-------------------------------------------------------------------------|
A|-------------------------------------------------------------------------|
E|-------------------------------------------------------------------------|

 

BASS:

 

G|--------------------------------|
D|--------------------------------|
A|--0------0--0-------------------|
E|-------------------0------0--0--|

 

GUITAR:

 

e|--5------5---5------5------5------5------5------7--|
B|--7------7---5------5------7------5------7------9--|
G|--7------7---6------6------7------6------7------9--|
D|---------------------------------------------------|
A|---------------------------------------------------|
E|---------------------------------------------------|

 

BASS:

 

G|------------------------------------------------------------------------------------------|
D|------------------------------------------------------------------------------------------|
A|-------------------4------4--4------5----5--5--5--4--2--0----2--4--5----5--5--5--7--9--7--|
E|--2------2--2-----------------------------------------------------------------------------|

 

UKULELE:

 

A|--4----4--------4---------4----------2----2--------2---------2----------0------0--0------0------0--0--|
E|--5-------5---------5---------5------4-------4---------4---------4------2------2--1------0------0--0--|
C|--4----------4---------4---------4---4----------4---------4---------4---2------2--2------1------1--1--|
g|------------------------------------------------------------------------------------------------------|

 

Schoolday - Tron544
00:00 / 00:00
DONATE%20BUTTON%20(EN)_edited.png

©2015 by Fefe - Tron544

Sigueme en:

  • YouTube - White Circle
  • Facebook - White Circle
  • Instagram - White Circle
  • Twitter - White Circle
This site was designed with the
.com
website builder. Create your website today.
Start Now