~ SCANDAL BABY ~

TABLATURAS ~ By Fefe - Tron544
 

Intro:

e|--5(NH)-------------------------------|
B|---------5(NH)---5(NH)--7(NH)---------|
G|--------------------------------------|
D|-------------------------------5(NH)--|
A|--------------------------------------|
E|--------------------------------------|

e|---------------------------------------------------------------------|
B|--12----12-------12----------------12----12-------10----10-----------|
G|-----12----12-11----11-12-------------12----12-11----11-----9-9-9-9--|
D|-----------------------------12-----------------------------9-9-9-9--|
A|------------------------------------------------------------7-7-7-7--|
E|---------------------------------------------------------------------|

e|----------------------------------------------------------------------------------------------|
B|----------------------------------------------------------------------------------------------|
G|--14-b-r-12----------12-----12-14-14-b-r-12------14-b-r-12----------12------------------------|
D|------------14-12-14-----14-----------------14-------------14-12-14-----14-12----------12-14--|
A|------------------------------------------------------------------------------14-12-14--------|
E|----------------------------------------------------------------------------------------------|

e|--------------------------------------------------------------------------------------|
B|-----------------------------------------------------------15-------------------------|
G|--14-b-r-12----------12-----12-14-14-b-r-12------14-b-r-12----12-11-12--11-12--11-12--|
D|------------14-12-14-----14-----------------14----------------------------------------|
A|--------------------------------------------------------------------------------------|
E|--------------------------------------------------------------------------------------|

 


First Verse/Primera Estrofa:

e|-------------------------------------------------------------------------------|
B|-------------------------------------------------------------------------------|
G|--(5)-x-x-x-(7)-x-x-x-(9)-x-x-x------------(5)-x-x-x-(7)-x-x-x-----------------|
D|--(5)-x-x-x-(7)-x-x-x-(9)-x-x-x-(7)-x-x-x--(5)-x-x-x-(7)-x-x-x-(5)-x-x-x--7-7--|
A|--(3)-x-x-x-(5)-x-x-x-(7)-x-x-x-(7)-x-x-x--(3)-x-x-x-(5)-x-x-x-(5)-x-x-x--7-7--|
E|--------------------------------(5)-x-x-x----------------------(3)-x-x-x--5-5--|

e|----------------------------------------------------------------------------------|
B|----------------------------------------------------------------------------------|
G|--(5)-x-x-x-(7)-x-x-x-(9)-x-x-x------------(5)-x-x-x-(7)-x-x-x------11-12---11-9--|
D|--(5)-x-x-x-(7)-x-x-x-(9)-x-x-x-(7)-x-x-x--(5)-x-x-x-(7)-x-x-x----9-------9-------|
A|--(3)-x-x-x-(5)-x-x-x-(7)-x-x-x-(7)-x-x-x--(3)-x-x-x-(5)-x-x-x-10-----------------|
E|--------------------------------(5)-x-x-x-----------------------------------------|

e|---------------------------------------------------------------------------------------------------|
B|---------------------------------------------------------------------------------------------------|
G|--5--5-#-#-#-#-7--#-7-#-#-9--9-#-#-#-#-------------5--5-#-#-#-#-7--#-7-#-#--------------6-/-7-\-6--|
D|--5--5-#-#-#-#-7--#-7-#-#-9--9-#-#-#-#-7--#-7-#-#--5--5-#-#-#-#-7--#-7-#-#-5--5-#-#-#-#------------|
A|--3--3-#-#-#-#-5--#-5-#-#-7--7-#-#-#-#-7--#-7-#-#--3--3-#-#-#-#-5--#-5-#-#-5--5-#-#-#-#------------|
E|---------------------------------------5--#-5-#-#--------------------------3--3-#-#-#-#------------|

e|------------------------------------------------------------------------------|
B|------------------------------------------------------------------------------|
G|--5--5-#-#-4--8--9--9-#-#-#-#-------------5--5-#-#-#-#-7---7-9-9-9-9-9-9-9-9--|
D|--5--5-#-#-4--8--9--9-#-#-#-#-7--#-7-#-#--5--5-#-#-#-#-7---7-9-9-9-9-9-9-9-9--|
A|--3--3-#-#-2--6--7--7-#-#-#-#-7--#-7-#-#--3--3-#-#-#-#-5---5-7-7-7-7-7-7-7-7--|
E|------------------------------5--#-5-#-#--------------------------------------|

 


Pre-Chorus/Pre-Estribillo:

e|------------------------------------------------------------------|
B|------------------------------------------------------------------|
G|--2-x-2-x-2-x-2-x-4-x-4-x-4-x-4-x-5-x-5-x-5-x-x-------------------|
D|--2-x-2-x-2-x-2-x-4-x-4-x-4-x-4-x-5-x-5-x-5-x-x-5--5-5-x-5-x-5-x--|
A|--0-x-0-x-0-x-0-x-2-x-2-x-2-x-2-x-3-x-3-x-3-x-x-5--5-5-x-5-x-5-x--|
E|------------------------------------------------3--3-3-x-3-x-3-x--|

e|---------------------------------------------------------------------------------------------------|
B|----------------------------------------------------------------------------------12--13-12-13-12--|
G|--(2)-x-2-x-x-2-2-2-(4)-x-4-x-x-4-4-4--5-5-5-5-7-7-7-7-5-5-5-5-7-7-7-7--5--9--12-------------------|
D|--(2)-x-2-x-x-2-2-2-(4)-x-4-x-x-4-4-4--5-5-5-5-7-7-7-7-5-5-5-5-7-7-7-7------------9---10-9--10-9---|
A|--(0)-x-0-x-x-0-0-0-(2)-x-2-x-x-2-2-2--3-3-3-3-5-5-5-5-3-3-3-3-5-5-5-5--3--7--10-------------------|
E|---------------------------------------------------------------------------------------------------|

 


Chorus/Estribillo:

e|-----------------------------------------------------------------|
B|-----------------------------------------------------------------|
G|--5-5-5-5-7-7-7-7-9-9-9-9----------5-5-5-5-7-7-7-7---------------|
D|--5-5-5-5-7-7-7-7-9-9-9-9-7-7-7-7--5-5-5-5-7-7-7-7-5-5-5-5--7-7--|
A|--3-3-3-3-5-5-5-5-7-7-7-7-7-7-7-7--3-3-3-3-5-5-5-5-5-5-5-5--7-7--|
E|--------------------------5-5-5-5------------------3-3-3-3--5-5--|

e|-------------------------------------------------------------------------------------|
B|-------------------------------------------------------------------------------------|
G|--5-5-5-5-4--8--9-9-9-9----------5-5-5-5-7-7-7-7-9-9-9-9-9-9-9-9--5----7----9-9-9-9--|
D|--5-5-5-5-4--8--9-9-9-9-7-7-7-7--5-5-5-5-7-7-7-7-9-9-9-9-9-9-9-9--5----7----9-9-9-9--|
A|--3-3-3-3-2--6--7-7-7-7-7-7-7-7--3-3-3-3-5-5-5-5-7-7-7-7-7-7-7-7--3----5----7-7-7-7--|
E|------------------------5-5-5-5------------------------------------------------------|

 


Re-Intro:

e|----------------------------------------------------------------------------------------------|
B|----------------------------------------------------------------------------------------------|
G|--14-b-r-12----------12-----12-14-14-b-r-12------14-b-r-12----------12------------------------|
D|------------14-12-14-----14-----------------14-------------14-12-14-----14-12----------12-14--|
A|------------------------------------------------------------------------------14-12-14--------|
E|----------------------------------------------------------------------------------------------|

e|--------------------------------------------------------------------------------------|
B|-----------------------------------------------------------15-------------------------|
G|--14-b-r-12----------12-----12-14-14-b-r-12------14-b-r-12----12-11-12--11-12--11-12--|
D|------------14-12-14-----14-----------------14----------------------------------------|
A|--------------------------------------------------------------------------------------|
E|--------------------------------------------------------------------------------------|

 


Second Verse/Segunda Estrofa:

e|-------------------------------------------------------------------------------|
B|-------------------------------------------------------------------------------|
G|--(5)-x-x-x-(7)-x-x-x-(9)-x-x-x------------(5)-x-x-x-(7)-x-x-x-----------------|
D|--(5)-x-x-x-(7)-x-x-x-(9)-x-x-x-(7)-x-x-x--(5)-x-x-x-(7)-x-x-x-(5)-x-x-x--7-7--|
A|--(3)-x-x-x-(5)-x-x-x-(7)-x-x-x-(7)-x-x-x--(3)-x-x-x-(5)-x-x-x-(5)-x-x-x--7-7--|
E|--------------------------------(5)-x-x-x----------------------(3)-x-x-x--5-5--|

e|---------------------------------------------------------------------------------------------------------|
B|---------------------------------------------------------------------------------------------------------|
G|--(5)-x-x-x-(7)-x-x-x-(9)-x-x-x------------(5)-x-x-x-(7)-x-x-x-5(NH)-----5(NH)-----5(NH)-----5(NH)-------|
D|--(5)-x-x-x-(7)-x-x-x-(9)-x-x-x-(7)-x-x-x--(5)-x-x-x-(7)-x-x-x------5(NH)-----5(NH)-----5(NH)-----5(NH)--|
A|--(3)-x-x-x-(5)-x-x-x-(7)-x-x-x-(7)-x-x-x--(3)-x-x-x-(5)-x-x-x-------------------------------------------|
E|--------------------------------(5)-x-x-x----------------------------------------------------------------|

e|---------------------------------------------------------------------------------------------------|
B|---------------------------------------------------------------------------------------------------|
G|--5--5-#-#-#-#-7--#-7-#-#-9--9-#-#-#-#-------------5--5-#-#-#-#-7--#-7-#-#--------------6-/-7-\-6--|
D|--5--5-#-#-#-#-7--#-7-#-#-9--9-#-#-#-#-7--#-7-#-#--5--5-#-#-#-#-7--#-7-#-#-5--5-#-#-#-#------------|
A|--3--3-#-#-#-#-5--#-5-#-#-7--7-#-#-#-#-7--#-7-#-#--3--3-#-#-#-#-5--#-5-#-#-5--5-#-#-#-#------------|
E|---------------------------------------5--#-5-#-#--------------------------3--3-#-#-#-#------------|

e|------------------------------------------------------------------------------|
B|------------------------------------------------------------------------------|
G|--5--5-#-#-4--8--9--9-#-#-#-#-------------5--5-#-#-#-#-7---7-9-9-9-9-9-9-9-9--|
D|--5--5-#-#-4--8--9--9-#-#-#-#-7--#-7-#-#--5--5-#-#-#-#-7---7-9-9-9-9-9-9-9-9--|
A|--3--3-#-#-2--6--7--7-#-#-#-#-7--#-7-#-#--3--3-#-#-#-#-5---5-7-7-7-7-7-7-7-7--|
E|------------------------------5--#-5-#-#--------------------------------------|

 


Pre-Chorus/Pre-Estribillo:

e|------------------------------------------------------------------|
B|------------------------------------------------------------------|
G|--2-x-2-x-2-x-2-x-4-x-4-x-4-x-4-x-5-x-5-x-5-x-x-------------------|
D|--2-x-2-x-2-x-2-x-4-x-4-x-4-x-4-x-5-x-5-x-5-x-x-5--5-5-x-5-x-5-x--|
A|--0-x-0-x-0-x-0-x-2-x-2-x-2-x-2-x-3-x-3-x-3-x-x-5--5-5-x-5-x-5-x--|
E|------------------------------------------------3--3-3-x-3-x-3-x--|

e|---------------------------------------------------------------------------------------------|
B|---------------------------------------------------------------------------------------------|
G|--(2)-x-2-x-x-2-2-2-(4)-x-4-x-x-4-4-4--5-5-5-5-7-7-7-7-5-5-5-5-7-7-7-7--5--9--5--4--5-4-5-4--|
D|--(2)-x-2-x-x-2-2-2-(4)-x-4-x-x-4-4-4--5-5-5-5-7-7-7-7-5-5-5-5-7-7-7-7-----------------------|
A|--(0)-x-0-x-x-0-0-0-(2)-x-2-x-x-2-2-2--3-3-3-3-5-5-5-5-3-3-3-3-5-5-5-5--3--7--3--2--3-2-3-2--|
E|---------------------------------------------------------------------------------------------|


Solo:

e|---------------------------------------------------------------------------------|
B|--7---7---7----8-----7----7---7---7---7----5----7---7----8-----10----12----12----|
G|--9-b-9-b-9-b--10-b--9-b--9-b-9-b-9-b-9-b--7-b--9-b-9-b--10-b--12-b--14-b--14-b--|
D|---------------------------------------------------------------------------------|
A|---------------------------------------------------------------------------------|
E|---------------------------------------------------------------------------------|

e|--10-#-#-12-#-#-15-#-#-10-#-#-12-#-#-15-#-#-17-#-#--|
B|-----#-#----#-#----#-#----#-#----#-#----#-#----#-#--|
G|--7--#-#-9--#-#-12-#-#-7--#-#-9--#-#-12-#-#-14-#-#--|
D|----------------------------------------------------|
A|----------------------------------------------------|
E|----------------------------------------------------|

e|--15-15-15-15-17-17-17-17-19-19-19-19-20-20-20-19--19-/-22-22-22-22-22--|
B|------------------------------------------------------------------------|
G|--12-12-12-12-14-14-14-14-16-16-16-16-17-17-17-16--16-/-19-19-19-19-19--|
D|------------------------------------------------------------------------|
A|------------------------------------------------------------------------|
E|------------------------------------------------------------------------|

 


Bridge/Puente:

  /~~~~~~~~~~~~~~~~~~~~~( REPEAT x2 / REPITE x2 )~~~~~~~~~~~~~~~~~~~~\
e|--------------------------------------------------------------------|
B|--------------------------------------------------------------------|
G|------------------5-5-#-#-5-5-#-#-----------------------------------|
D|--3-3-#-#-3-3-#-#-5-5-#-#-5-5-#-#-5-5-#-#-5-5-#-#-#-5-#-5-5--#-5-5--|
A|--3-3-#-#-3-3-#-#-3-3-#-#-3-3-#-#-5-5-#-#-5-5-#-#-#-5-#-5-5--#-5-5--|
E|--1-1-#-#-1-1-#-#-----------------3-3-#-#-3-3-#-#-#-3-#-3-3--#-3-3--|

e|----------------------------------------------------------------|
B|----------------------------------------------------------------|
G|------------------5-5-5-5-5-5-5-5-7-7-7-7-7-7-7-7-4-4-4-4-4--4--|
D|--3-3-3-3-3-3-3-3-5-5-5-5-5-5-5-5-7-7-7-7-7-7-7-7-4-4-4-4-4--4--|
A|--3-3-3-3-3-3-3-3-3-3-3-3-3-3-3-3-5-5-5-5-5-5-5-5-2-2-2-2-2--2--|
E|--1-1-1-1-1-1-1-1-----------------------------------------------|


Last Chorus/Ultimo Estribillo:

e|----------------------------------------------------------------------------------------------------|
B|----------------------------------------------------------------------------------------------------|
G|----------------------------------------------------------------------------------------------------|
D|--------(5)---------(7)---------(9)-x-(7)-x-(5)------------(5)---------(7)----(5)-x-x-x--(7)-x-x-x--|
A|--(3)-x-----x-(5)-x-----x-(7)-x-----------------(5)--(3)-x-----x-(5)-x-----x--(5)-x-x-x--(7)-x-x-x--|
E|------------------------------------------------------------------------------(3)-x-x-x--(5)-x-x-x--|

e|--------------------------------------------------------------------------------------------------|
B|--------------------------------------------------------------------------------------------------|
G|-------------------------------------------------------------------------------9-9-9-9-9-9--------|
D|--------(5)---------------------(9)-x-(7)-x-(5)------------(5)---------(7)-7---9-9-9-9-9-9--------|
A|--(3)-x-----x-(5)-x-(6)-x-(7)-x-----------------(5)--(3)-x-----x-(5)-x-----5---7-7-7-7-7-7--------|
E|--------------------------------------------------------------------------------------------12-\--|

e|-----------------------------------------------------------------|
B|-----------------------------------------------------------------|
G|--5-5-5-5-7-7-7-7-9-9-9-9----------5-5-5-5-7-7-7-7---------------|
D|--5-5-5-5-7-7-7-7-9-9-9-9-7-7-7-7--5-5-5-5-7-7-7-7-5-5-5-5--7-7--|
A|--3-3-3-3-5-5-5-5-7-7-7-7-7-7-7-7--3-3-3-3-5-5-5-5-5-5-5-5--7-7--|
E|--------------------------5-5-5-5------------------3-3-3-3--5-5--|

e|------------------------------------------------------------------|
B|------------------------------------------------------------------|
G|--5-5-5-5-4--8--9-9-9-9----------5-5-5-5-7-7-7-7-9-9-9-9-9-9-9-9--|
D|--5-5-5-5-4--8--9-9-9-9-7-7-7-7--5-5-5-5-7-7-7-7-9-9-9-9-9-9-9-9--|
A|--3-3-3-3-2--6--7-7-7-7-7-7-7-7--3-3-3-3-5-5-5-5-7-7-7-7-7-7-7-7--|
E|------------------------5-5-5-5-----------------------------------|

e|-----------------------------------------------------------------|
B|-----------------------------------------------------------------|
G|--5-5-5-5-7-7-7-7-9-9-9-9----------5-5-5-5-7-7-7-7---------------|
D|--5-5-5-5-7-7-7-7-9-9-9-9-7-7-7-7--5-5-5-5-7-7-7-7-5-5-5-5--7-7--|
A|--3-3-3-3-5-5-5-5-7-7-7-7-7-7-7-7--3-3-3-3-5-5-5-5-5-5-5-5--7-7--|
E|--------------------------5-5-5-5------------------3-3-3-3--5-5--|

e|-------------------------------------------------------------------------------------|
B|-------------------------------------------------------------------------------------|
G|--5-5-5-5-4--8--9-9-9-9----------5-5-5-5-7-7-7-7-9-9-9-9-9-9-9-9--5----7----9-9-9-9--|
D|--5-5-5-5-4--8--9-9-9-9-7-7-7-7--5-5-5-5-7-7-7-7-9-9-9-9-9-9-9-9--5----7----9-9-9-9--|
A|--3-3-3-3-2--6--7-7-7-7-7-7-7-7--3-3-3-3-5-5-5-5-7-7-7-7-7-7-7-7--3----5----7-7-7-7--|
E|------------------------5-5-5-5------------------------------------------------------|


Outro:

e|----------------------------------------------------------------------------------------------|
B|----------------------------------------------------------------------------------------------|
G|--14-b-r-12----------12-----12-14-14-b-r-12------14-b-r-12----------12------------------------|
D|------------14-12-14-----14-----------------14-------------14-12-14-----14-12----------12-14--|
A|------------------------------------------------------------------------------14-12-14--------|
E|----------------------------------------------------------------------------------------------|

e|--------------------------------------------------------------------------------------|
B|-----------------------------------------------------------15-------------------------|
G|--14-b-r-12----------12-----12-14-14-b-r-12------14-b-r-12----12-11-12--11-12--11-12--|
D|------------14-12-14-----14-----------------14----------------------------------------|
A|--------------------------------------------------------------------------------------|
E|--------------------------------------------------------------------------------------|

e|----------------------------------------------------------------------------------------------|
B|----------------------------------------------------------------------------------------------|
G|--14-b-r-12----------12-----12-14-14-b-r-12------14-b-r-12----------12------------------------|
D|------------14-12-14-----14-----------------14-------------14-12-14-----14-12----------12-14--|
A|------------------------------------------------------------------------------14-12-14--------|
E|----------------------------------------------------------------------------------------------|

e|--------------------------------------------------------------------------------------|
B|-----------------------------------------------------------15-------------------------|
G|--14-b-r-12----------12-----12-14-14-b-r-12------14-b-r-12----12-11-12--11-12--11-12--|
D|------------14-12-14-----14-----------------14----------------------------------------|
A|--------------------------------------------------------------------------------------|
E|--------------------------------------------------------------------------------------|

e|-------------------------------------|
B|-------------------------------------|
G|--14-b-r-12----------12---9-9-9---5--|
D|------------14-12-14------9-9-9---5--|
A|--------------------------7-7-7---3--|
E|-------------------------------------|

SCANDAL BABY - Tron544
00:00 / 00:00

©2019 by Fefe - Tron544

Sigueme en:

  • YouTube - White Circle
  • Facebook - White Circle
  • Instagram - White Circle
  • Twitter - White Circle
This site was designed with the
.com
website builder. Create your website today.
Start Now