SAYONARA MEMORY

NARUTO SHIPPUDEN

TABS ~ By Fefe (Tron544)

 

Intro:

 

GUITAR 2:

 

e|----------------------|

B|------11------11------|

G|--13------13------13--|

D|----------------------|

A|----------------------|

E|----------------------|

 

GUITAR 1:

 

e|------------------------------|

B|------------------------------|

G|---------6------8-------------|

D|--3------6------8------6---5--|

A|--3------4------6------6---6--|

E|--1--------------------4---3--|

 

GUITAR 2:

 

e|---------------------------------------------------------------------------------------------------------|

B|--11-/-13-------11------11------11-/-13-------11------11------11-/-13--14--13--11------------------------|

G|------------13------13------13------------13------13------13-----------------------13------13--13--------|

D|---------------------------------------------------------------------------------------13------------13--|

A|---------------------------------------------------------------------------------------------------------|

E|---------------------------------------------------------------------------------------------------------|

 

GUITAR 1:

 

e|--------------------------------------------|

B|--------------------------------------------|

G|---------6------8---------------------------|

D|--3------6------8------6--6--6--6--6--6--6--|

A|--3------4------6------6--6--6--6--6--6--6--|

E|--1--------------------4--4--4--4--4--4--4--|

 

GUITAR 2:

 

e|----------------------------------------------------------------------------------------|

B|--11-----------11-----------11--------11------11------11----------------11------11------|

G|------13-----------13-----------13--------13------13------13--13----13------13------13--|

D|-----------13-----------13--------------------------------------------------------------|

A|----------------------------------------------------------------------------------------|

E|----------------------------------------------------------------------------------------|

 

GUITAR 1:

 

e|----------------------------------9--8--------------------------------------9--8-----|

B|-----9-----11--9-----9------9-----------9------9-----11--9-----9------9-----------9--|

G|--8-----8---------8------8-----8------------8-----8---------8------8-----8-----------|

D|-------------------------------------------------------------------------------------|

A|-------------------------------------------------------------------------------------|

E|-------------------------------------------------------------------------------------|

 

GUITAR 2:

 

e|-----------|

B|--11-/-13--|

G|-----------|

D|-----------|

A|-----------|

E|-----------|

 

 

Verse/Estrofa:

 

GUITAR 1:

 

e|---------------------------------------------------------------------------------------|

B|---------------------------------------------------------------------------------------|

G|--7--x--x--x--7--x--x---3--x--x--x--3--x--x---5--x--x--x--5--x--x----------------------|

D|--7--x--x--x--7--x--x---3--x--x--x--3--x--x---5--x--x--x--5--x--x---3--x--x---2--x--x--|

A|--5--x--x--x--5--x--x---1--x--x--x--1--x--x---3--x--x--x--3--x--x---3--x--x---2--x--x--|

E|--------------------------------------------------------------------1--x--x---0--x--x--|

 

GUITAR 2:

 

e|------|-------------------------------------------------------------------------------------------|

B|------|----------------------------------------------------13-------------------------------------|

G|------|--------------12------12--14--14-/-15--14---12--14------15--14------12--14--12-/-14--------|

D|------|--15--15--15------15--------------------------------------------15-------------------------|

A|--15--|---------------------------------------------------------------------------------------15--|

E|------|-------------------------------------------------------------------------------------------|

 

GUITAR 1:

 

e|-----------------------------------------------------------------------------------------|

B|-----------------------------------------------------------------------------------------|

G|--7--x--x--x--7--x--x---3--x--x--x--3--x--x---5--x--x--x--5--x--x------------------------|

D|--7--x--x--x--7--x--x---3--x--x--x--3--x--x---5--x--x--x--5--x--x---3--x--x--x--3--3--3--|

A|--5--x--x--x--5--x--x---1--x--x--x--1--x--x---3--x--x--x--3--x--x---3--x--x--x--3--3--3--|

E|--------------------------------------------------------------------1--x--x--x--1--1--1--|

 

GUITAR 2:

 

e|--------------------------------------------------------------------|

B|--------------------------13--------------13------------------------|

G|--------------12------12------15--14----------15--14----------------|

D|--15--15--15------15------------------15--------------15--15----15--|

A|--------------------------------------------------------------------|

E|--------------------------------------------------------------------|

Sayonara Memory - Tron544
00:00 / 00:00
DONATE%20BUTTON%20(EN)_edited.png

Pre-Chorus/Pre-Estribillo:

 

GUITAR 1:

 

e|----------------------------------------------------------------------------------------------------------|

B|----------------------------------------------------------------------------------------------------------|

G|--3--3--3---3--3---3--3--3----------------------------3--3--3---3--3---3--3--3----------------------------|

D|--3--3--3---3--3---3--3--3--3--3--3---3--3---3--3--3--3--3--3---3--3---3--3--3--3--3--3---3--3---3--3--3--|

A|--1--1--1---1--1---1--1--1--3--3--3---3--3---1--3--3--1--1--1---1--1---1--1--1--3--3--3---3--3---3--3--3--|

E|----------------------------1--1--1---1--1---1--1--1----------------------------1--1--1---1--1---1--1--1--|

 

GUITAR 2:

 

e|----------------------------------------------------------------------------------------------------|

B|----------------------------------------------------------------------------------------------------|

G|--12---14--14-/-15---14------------------12------12-----12------12--14--14-/-15---14----------------|

D|-------------------------15--15------15------15------15-----15------------------------15--15----15--|

A|----------------------------------------------------------------------------------------------------|

E|----------------------------------------------------------------------------------------------------|

 

GUITAR 1:

 

e|--------------------------------------------------------------------------------------------------|

B|--------------------------------------------------------------------------------------------------|

G|--3--x--x--3--x--x--x--x---3--x--x--3--x--x--x--x-------------------------------------------------|

D|--3--x--x--3--x--x--x--x---3--x--x--3--x--x--x--x---3--x--x--3--x--x--x--x---3--x--x--3--x--x--3--|

A|--1--x--x--1--x--x--x--x---1--x--x--1--x--x--x--x---3--x--x--3--x--x--x--x---3--x--x--3--x--x--3--|

E|----------------------------------------------------1--x--x--1--x--x--x--x---1--x--x--1--x--x--1--|

 

GUITAR 2:

 

e|-------------------------------------------------------------------------------------------------|

B|-------------------------------------------------------------------------------------------------|

G|--12------12------12------12--14--14-/-15---15--14------------------------12---14--14-/-15-\-14--|

D|------15------15------15----------------------------15--15----15--15--15-------------------------|

A|-------------------------------------------------------------------------------------------------|

E|-------------------------------------------------------------------------------------------------|

 

GUITAR 1:

 

                                             /~~( WAH WAH + PHASER )~~\

e|---------------------------------------------------------------------|

B|---------------------------------------------8--8--8--8--8--8--8--8--|

G|---------------3---10--8------8--------------8--8--8--8--8--8--8--8--|

D|--5--5--5--5---3----------10-----10--8--10---8--8--8--8--8--8--8--8--|

A|--5--5--5--5---1-----------------------------------------------------|

E|--3--3--3--3---------------------------------------------------------|

 

GUITAR 2:

 

e|-------------------------------------------------|

B|---------------------------------11------11------|

G|--12---14--14-/-15-\-14------13------13------13--|

D|-------------------------------------------------|

A|-------------------------------------------------|

E|-------------------------------------------------|

 

 

Chorus/Estribillo:

 

GUITAR 1:

 

e|---------------------------------------------------------------|

B|---------------------------------------------------------------|

G|------------------6--6--6--6--6---8--8--8--8--8----------------|

D|--3--3--3--3--3---6--6--6--6--6---8--8--8--8--8---6--6---5--5--|

A|--3--3--3--3--3---4--4--4--4--4---6--6--6--6--6---6--6---6--6--|

E|--1--1--1--1--1-----------------------------------4--4---3--3--|

 

GUITAR 2:

 

e|---------------------------------------------------------------------------------------------------------|

B|--11-/-13-------11------11------11-/-13-------11------11------11-/-13--14--13--11------------------------|

G|------------13------13------13------------13------13------13-----------------------13------13--13--------|

D|---------------------------------------------------------------------------------------13------------13--|

A|---------------------------------------------------------------------------------------------------------|

E|---------------------------------------------------------------------------------------------------------|

 

GUITAR 1:

 

e|-----------------------------------------------------------------|

B|-----------------------------------------------------------------|

G|------------------6--6--6--6--6---8--8--8--8--8------------------|

D|--3--3--3--3--3---6--6--6--6--6---8--8--8--8--8---6--6--6--6--6--|

A|--3--3--3--3--3---4--4--4--4--4---6--6--6--6--6---6--6--6--6--6--|

E|--1--1--1--1--1-----------------------------------4--4--4--4--4--|

 

GUITAR 2:

 

e|----------------------------------------------------------------------------------------|

B|--11-----------11-----------11--------11------11------11----------------11------11------|

G|------13-----------13-----------13--------13------13------13--13----13------13------13--|

D|-----------13-----------13--------------------------------------------------------------|

A|----------------------------------------------------------------------------------------|

E|----------------------------------------------------------------------------------------|

 

GUITAR 1:

 

e|---------------------------------------------------------------|

B|---------------------------------------------------------------|

G|------------------6--6--6--6--6---8--8--8--8--8----------------|

D|--3--3--3--3--3---6--6--6--6--6---8--8--8--8--8---6--6---5--5--|

A|--3--3--3--3--3---4--4--4--4--4---6--6--6--6--6---6--6---6--6--|

E|--1--1--1--1--1-----------------------------------4--4---3--3--|

 

GUITAR 2:

 

e|-----------------------------------------------------------------------------------11--------------------|

B|--11-/-13-------11------11------11-/-13-------11------11------11-/-13--14--13----------14--13------------|

G|------------13------13------13------------13------13------13-------------------13--------------13--------|

D|-----------------------------------------------------------------------------------------------------13--|

A|---------------------------------------------------------------------------------------------------------|

E|---------------------------------------------------------------------------------------------------------|

 

GUITAR 1:

 

e|-----------------------------------------------------------------------|

B|-----------------------------------------------------------------------|

G|------------------6--6--6--6--6---8--8--8--8--8------------------------|

D|--3--3--3--3--3---6--6--6--6--6---8--8--8--8--8---6--6--6--6--6--6--6--|

A|--3--3--3--3--3---4--4--4--4--4---6--6--6--6--6---6--6--6--6--6--6--6--|

E|--1--1--1--1--1-----------------------------------4--4--4--4--4--4--4--|

 

GUITAR 2:

 

e|----------------------------------------------------------------------------------------|

B|--11-----------11-----------11--------11------11------11--13------------11------11------|

G|------13-----------13-----------13--------13------13----------13----13------13------13--|

D|-----------13-----------13--------------------------------------------------------------|

A|----------------------------------------------------------------------------------------|

E|----------------------------------------------------------------------------------------|

 

GUITAR 1:

 

e|-----------------------------------------------|

B|-----9-----11--9-----9------9-----11--9-----9--|

G|--8-----8---------8------8-----8---------8-----|

D|-----------------------------------------------|

A|-----------------------------------------------|

E|-----------------------------------------------|

 

GUITAR 2:

 

e|-----------|

B|--11-/-13--|

G|-----------|

D|-----------|

A|-----------|

E|-----------|

 

GUITAR 1:

 

e|----------------------------------------------------------------------|

B|-----9-----11--9-----9------9-----11--9-----9------9-----11--9-----9--|

G|--8-----8---------8------8-----8---------8------8-----8---------8-----|

D|----------------------------------------------------------------------|

A|----------------------------------------------------------------------|

E|----------------------------------------------------------------------|

©2015 by Fefe - Tron544

Sigueme en:

  • YouTube - White Circle
  • Facebook - White Circle
  • Instagram - White Circle
  • Twitter - White Circle
This site was designed with the
.com
website builder. Create your website today.
Start Now