~ RUNNERS HIGH ~

TABLATURAS ~ By Fefe - Tron544
 

Intro:

 

e|--------|------------------------------------------------------------------|

B|--------|------------------------------------------------------------------|

G|--6--6--|----------13--13--11--11--13--13----------13--13--11--11--13--13--|

D|--6--6--|--11--11--------------------------10--10--------------------------|

A|--4--4--|------------------------------------------------------------------|

E|--------|------------------------------------------------------------------|

 

e|-------------------------------------------------------|

B|------------------------12---/-14--14------------------|

G|--11--11--9--9--11--13------------------11--13--11--9--|

D|-------------------------------------------------------|

A|-------------------------------------------------------|

E|-------------------------------------------------------|

 

e|------------------------------------------------------------------------------------------|

B|------------------------------------------------------------------2-----4-----5-----9-----|

G|----------13--13--11--11--13--13----------13--13--11--13--11--9---4-b---6-b---7-b---11-b--|

D|--11--11--------------------------10--10--------------------------------------------------|

A|------------------------------------------------------------------------------------------|

E|------------------------------------------------------------------------------------------|

 

 

First Verse/Primera Estrofa:

 

e|-------------------------------------------------------------------------------------------------------|

B|-------------------------------------------------------------------------------------------------------|

G|--(6)-x--x--x--x--x--x--x---x--x--x--x--x--x--x--x---(9)-x--x--x--x--x--x--x---x--x--x--x--x--x--x--x--|

D|--(6)-x--x--x--x--x--x--x---x--x--x--x--x--x--x--x---(9)-x--x--x--x--x--x--x---x--x--x--x--x--x--x--x--|

A|--(4)-x--x--x--x--x--x--x---x--x--x--x--x--x--x--x---(7)-x--x--x--x--x--x--x---x--x--x--x--x--x--x--x--|

E|-------------------------------------------------------------------------------------------------------|

 

e|-------------------------------------------------------------------------------------------------|

B|-------------------------------------------------------------------------------------------------|

G|-------------------------------------------------------------------------------------------------|

D|--(4)-x--x--x--x--x--x--x---x--x--x--x--x---(6)-x---(7)-x--x--x--x--x--x--x---9--9------#--#--#--|

A|--(4)-x--x--x--x--x--x--x---x--x--x--x--x---(6)-x---(7)-x--x--x--x--x--x--x---9--9------#--#--#--|

E|--(2)-x--x--x--x--x--x--x---x--x--x--x--x---(4)-x---(5)-x--x--x--x--x--x--x---7--7------#--#--#--|

 

e|-------------------------------------------------------------------------------------------------------|

B|-------------------------------------------------------------------------------------------------------|

G|--(6)-x--6--6--x--x--6--6---x--x--6--6--x--x--6--6---(9)-x--9--9--x--x--9--9---x--x--9--9--x--x--9--9--|

D|--(6)-x--6--6--x--x--6--6---x--x--6--6--x--x--6--6---(9)-x--9--9--x--x--9--9---x--x--9--9--x--x--9--9--|

A|--(4)-x--4--4--x--x--4--4---x--x--4--4--x--x--4--4---(7)-x--7--7--x--x--7--7---x--x--7--7--x--x--7--7--|

E|-------------------------------------------------------------------------------------------------------|

 

e|--------------------------------------------------------------------------------------------------------|

B|--------------------------------------------------------------------------------------------------------|

G|--------------------------------------------------------------------------------------------------------|

D|--(4)-x--4--4--x--x--4--4---x--x--4--4--x--x---6--6---(7)-x--7--7--x--x--7--5---(9)-x--9--9--x--x---10--|

A|--(4)-x--4--4--x--x--4--4---x--x--4--4--x--x---6--6---(7)-x--7--7--x--x--7--5---(9)-x--9--9--x--x---10--|

E|--(2)-x--2--2--x--x--2--2---x--x--2--2--x--x---4--4---(5)-x--5--5--x--x--5--5---(7)-x--7--7--x--x---8---|

 

 

Pre-Chorus/Pre-Estribillo:

 

e|-------------------------------------4--4--4--4--2--------|-------------------------------------------------|

B|----------------------------------------------------5--2--|-------------------------------------------------|

G|--6---4---6-----------4---6---4---6-----------------------|--6---4---6---------------4------------------13--|

D|--6---4---6---2---4---4---6---4---6-----------------------|--6---4---6---2---4---4---4----------10--13------|

A|--4---2---4---2---4---2---4---2---4-----------------------|--4---2---4---2---4---4---2------11--------------|

E|--------------0---2---------------------------------------|--------------0---2---2--------------------------|

 

 

First Chorus/Second Estribillo:

 

e|---------------------------------------------------------------------|

B|---------------------------------------------------------------------|

G|----------------------------------6--6--6--6--6----------------------|

D|--7--7--7--7--7---9--9--9--9--9---6--6--6--6--6---4--4--4--4---6--6--|

A|--7--7--7--7--7---9--9--9--9--9---4--4--4--4--4---4--4--4--4---6--6--|

E|--5--5--5--5--5---7--7--7--7--7-------------------2--2--2--2---4--4--|

 

e|--------------------------------------------------------------------------------------------------|

B|--------------------------------------------------------------------------------------------------|

G|----------------------------------------9--x--x--x--x--9---#--#--11--#--#--13--#--#--11--#--#--9--|

D|--7--x--x--x--x--7---9--x--x--x--x--9---9--x--x--x--x--9---#--#------#--#------#--#------#--#-----|

A|--7--x--x--x--x--7---9--x--x--x--x--9---7--x--x--x--x--7---#--#--9---#--#--11--#--#--9---#--#--7--|

E|--5--x--x--x--x--5---7--x--x--x--x--7-------------------------------------------------------------|

 

e|---------------------------------------------------------------|

B|---------------------------------------------------------------|

G|----------------------------6--6--6--6--6----------------------|

D|--7--7--7--7---6--6--6--6---6--6--6--6--6---4--4--4--4---6--6--|

A|--7--7--7--7---6--6--6--6---4--4--4--4--4---4--4--4--4---6--6--|

E|--5--5--5--5---4--4--4--4-------------------2--2--2--2---4--4--|

 

e|-----------------------------------------------------------|

B|-----------------------------------------------------------|

G|----------------------------6--6--6--6--6------------------|

D|--7--7--7--7---9--9--9--9---6--6--6--6--6---4--4--4--4--4--|

A|--7--7--7--7---9--9--9--9---4--4--4--4--4---4--4--4--4--4--|

E|--5--5--5--5---7--7--7--7-------------------2--2--2--2--2--|

 

 

Interlude/Intermedio:

 

e|------------------------------------------------------------------|

B|------------------------------------------------------------------|

G|----------13--13--11--11--13--13----------13--13--11--11--13--13--|

D|--11--11--------------------------10--10--------------------------|

A|------------------------------------------------------------------|

E|------------------------------------------------------------------|

 

e|-------------------------------------------------------|---------------------------------------------|

B|------------------------12---/-14--14------------------|--10--10--10--10--9--9--9--9------9----------|

G|--11--11--9--9--11--13------------------11--13--11--9--|------------------------------11------11--9--|

D|-------------------------------------------------------|---------------------------------------------|

A|-------------------------------------------------------|---------------------------------------------|

E|-------------------------------------------------------|---------------------------------------------|

 

 

Second Verse/Segunda Estrofa:

 

e|------------------------------------------------------------------------------------------|

B|------------------------------------------------------------------------------------------|

G|--6--6--6--6--6--6--6--6---9--9--9--9--9--9--9--9-----------------------------------------|

D|--6--6--6--6--6--6--6--6---9--9--9--9--9--9--9--9---4--4--4--4--4--4---6--6---7--7--7--7--|

A|--4--4--4--4--4--4--4--4---7--7--7--7--7--7--7--7---4--4--4--4--4--4---6--6---7--7--7--7--|

E|----------------------------------------------------2--2--2--2--2--2---4--4---5--5--5--5--|

 

e|-------------------------------------------------------------------------------------------------------|

B|-------------------------------------------------------------------------------------------------------|

G|--(6)-x--x--x--x--x--x--x---x--x--x--x--x--x--x--x---(9)-x--x--x--x--x--x--x---x--x--x--x--x--x--x--x--|

D|--(6)-x--x--x--x--x--x--x---x--x--x--x--x--x--x--x---(9)-x--x--x--x--x--x--x---x--x--x--x--x--x--x--x--|

A|--(4)-x--x--x--x--x--x--x---x--x--x--x--x--x--x--x---(7)-x--x--x--x--x--x--x---x--x--x--x--x--x--x--x--|

E|-------------------------------------------------------------------------------------------------------|

 

e|------------------------------------------------------------------------|

B|------------------------------------------------------------------------|

G|------------------------------------------------------------------------|

D|--(4)-x--x--x--x--x--x--x---x--x--x--x--x---6--6---7--7---9--9--9---10--|

A|--(4)-x--x--x--x--x--x--x---x--x--x--x--x---6--6---7--7---9--9--9---10--|

E|--(2)-x--x--x--x--x--x--x---x--x--x--x--x---4--4---5--5---7--7--7---8---|

 

 

Pre-Chorus/Pre-Estribillo:

 

e|-------------------------------------4--4--4--4--2--------|-------------------------------------------------|

B|----------------------------------------------------5--2--|-------------------------------------------------|

G|--6---4---6-----------4---6---4---6-----------------------|--6---4---6---------------4------------------13--|

D|--6---4---6---2---4---4---6---4---6-----------------------|--6---4---6---2---4---4---4----------10--13------|

A|--4---2---4---2---4---2---4---2---4-----------------------|--4---2---4---2---4---4---2------11--------------|

E|--------------0---2---------------------------------------|--------------0---2---2--------------------------|

 

Second Chorus/Segundo Estribillo:

 

e|---------------------------------------------------------------------|

B|---------------------------------------------------------------------|

G|----------------------------------6--6--6--6--6----------------------|

D|--7--7--7--7--7---9--9--9--9--9---6--6--6--6--6---4--4--4--4---6--6--|

A|--7--7--7--7--7---9--9--9--9--9---4--4--4--4--4---4--4--4--4---6--6--|

E|--5--5--5--5--5---7--7--7--7--7-------------------2--2--2--2---4--4--|

 

e|--------------------------------------------------------------------------------------------------|

B|--------------------------------------------------------------------------------------------------|

G|----------------------------------------9--x--x--x--x--9---#--#--11--#--#--13--#--#--11--#--#--9--|

D|--7--x--x--x--x--7---9--x--x--x--x--9---9--x--x--x--x--9---#--#------#--#------#--#------#--#-----|

A|--7--x--x--x--x--7---9--x--x--x--x--9---7--x--x--x--x--7---#--#--9---#--#--11--#--#--9---#--#--7--|

E|--5--x--x--x--x--5---7--x--x--x--x--7-------------------------------------------------------------|

 

e|---------------------------------------------------------------|

B|---------------------------------------------------------------|

G|----------------------------6--6--6--6--6----------------------|

D|--7--7--7--7---6--6--6--6---6--6--6--6--6---4--4--4--4---6--6--|

A|--7--7--7--7---6--6--6--6---4--4--4--4--4---4--4--4--4---6--6--|

E|--5--5--5--5---4--4--4--4-------------------2--2--2--2---4--4--|

 

e|---------------------------------------------------------------|

B|---------------------------------------------------------------|

G|----------------------------6--6--6--6--6----------------------|

D|--7--7--7--7---9--9--9--9---6--6--6--6--6---4--4--4--4---#--#--|

A|--7--7--7--7---9--9--9--9---4--4--4--4--4---4--4--4--4---#--#--|

E|--5--5--5--5---7--7--7--7-------------------2--2--2--2---#--#--|

 

 

Solo:

 

e|-------------------------------------------------------------------------------------|

B|-------------------------------------------------------------------------------------|

G|--------------------------------------------------------------4--------------6-(PH)--|

D|-----------2------4--4--2-----2---------------------2------6-----6--4--2-------------|

A|--4--2--4-----4------------4-----4---------4--2--4-----4------------------4----------|

E|------------------------------------0--2---------------------------------------------|

 

e|-----------------------------------------------------------------------------|

B|-----------------------------------------------------------------------------|

G|-------------------------------------------9--#--#--8--#--#--7--------9--11--|

D|-----------2------4--4--2-----2------------9--#--#--7--#--#--7----11---------|

A|--4--2--4-----4------------4-----4---------7--#--#--6--#--#--5---------------|

E|------------------------------------0--2-------------------------------------|

 

e|----------------------------------14--16---------------16-----------------------------------|

B|------------------9-------14--17----------14---14--17------17--16--14-----------------------|

G|-----------9--11-------------------------------------------------------16--13----11--9--11--|

D|--11---11------------11---------------------------------------------------------------------|

A|--------------------------------------------------------------------------------------------|

E|--------------------------------------------------------------------------------------------|

 

e|-------------------------------------------------12---9--0--0--11--0--0--12--0--0--13--0--0--16--0--19--0--|

B|---------------12-----------14-----------12--14------------------------------------------------------------|

G|--13-------11-----------11-----------11--------------------------------------------------------------------|

D|-------11-----------11-----------11------------------------------------------------------------------------|

A|-----------------------------------------------------------------------------------------------------------|

E|-----------------------------------------------------------------------------------------------------------|

 

 

Bridge/Puente:

 

e|--20------5------3------5------3------5--|

B|----------7------5------7------5------7--|

G|----------7------5------7------5------7--|

D|----------7------5------7------5------7--|

A|----------5------3------5------3------5--|

E|-----------------------------------------|

 

e|------------------------------------------------------------------------------------------|

B|----------------------------------------------------------------------12--12--12--12--12--|

G|----------------------------------------------------------------------11--11--11--11--11--|

D|--9--x--x--x--x--9--x--x--x--9--x--x--x--9--x---9--x--x--x--x--x--x---9---9---9---9---9---|

A|--9--x--x--x--x--9--x--x--x--9--x--x--x--9--x---9--x--x--x--x--x--x-----------------------|

E|--7--x--x--x--x--7--x--x--x--7--x--x--x--7--x---7--x--x--x--x--x--x-----------------------|

 

 

Third Chorus/Tercer Estribillo:

 

e|-------------------------------------------------|

B|-------------------------------------------------|

G|-------------------------------------------------|

D|--7------9--9-------9---/-11--11------4----6--6--|

A|--7------9--9-------9---/-11--11------4----6--6--|

E|--5------7--7-------7---/-9---9-------2----4--4--|

 

e|--------------------------------------------------------------------------------|

B|--------------------------------------------------------------------------------|

G|----------------------------9--9--9--9---#--#--11--#--#--13--#--#--11--#--#--9--|

D|--7--7--7--7---9--9--9--9---9--9--9--9---#--#------#--#------#--#------#--#-----|

A|--7--7--7--7---9--9--9--9---7--7--7--7---#--#--9---#--#--11--#--#--9---#--#--7--|

E|--5--5--5--5---7--7--7--7-------------------------------------------------------|

 

e|---------------------------------------------------------------|

B|---------------------------------------------------------------|

G|----------------------------6--6--6--6--6----------------------|

D|--7--7--7--7---6--6--6--6---6--6--6--6--6---4--4--4--4---6--6--|

A|--7--7--7--7---6--6--6--6---4--4--4--4--4---4--4--4--4---6--6--|

E|--5--5--5--5---4--4--4--4-------------------2--2--2--2---4--4--|

 

e|---------------------------------------------------------------|

B|---------------------------------------------------------------|

G|----------------------------6--6--6--6--6----------------------|

D|--7--7--7--7---9--9--9--9---6--6--6--6--6---4--4--4--4---6--6--|

A|--7--7--7--7---9--9--9--9---4--4--4--4--4---4--4--4--4---6--6--|

E|--5--5--5--5---7--7--7--7-------------------2--2--2--2---4--4--|

 

e|-----------------------------------------------|

B|-----------------------------------------------|

G|-------------------------6---6---6---6---6--6--|

D|--7--7--7--7---9--9------6---6---6---6---6--6--|

A|--7--7--7--7---9--9------4---4---4---4---4--4--|

E|--5--5--5--5---7--7----------------------------|

 

 

Outro:

 

  /~~~~~~~( REPEAT x3 / REPITE x 3 )~~~~~~~\

e|------------------------------------------|------------------------------9-----9------9-----9------9-----|

B|--12--9-----------------------------------|--2-----4-----5-----9---------12-b--12-b---12-b--12-b---12-b--|

G|---------12--11--9------9------11-b-r--9--|--4-b---6-b---7-b---11-b--------------------------------------|

D|--------------------11-----11-------------|--------------------------------------------------------------|

A|------------------------------------------|--------------------------------------------------------------|

E|------------------------------------------|--------------------------------------------------------------|

Runners High - Tron544
00:00 / 00:00

©2019 by Fefe - Tron544

Sigueme en:

  • YouTube - White Circle
  • Facebook - White Circle
  • Instagram - White Circle
  • Twitter - White Circle
This site was designed with the
.com
website builder. Create your website today.
Start Now