ROSE

NANA

TABS ~ By Fefe (Tron544)

 

Intro:

 

e|--------------------------------------------------|

B|--/-3--3--3--3---3--3--3---3------3--3---3--3--3--|

G|--/-2--2--2--2---2--2--2---2-/-3--3--3---3--3--3--|

D|--------------------------------------------------|

A|--------------------------------------------------|

E|--------------------------------------------------|

 

e|-----------------------------------------------|

B|--3--3--3--3---3--3--3---3--3--3--3---3--3--3--|

G|--0--0--0--0---0--0--0---2--2--2--2---2--2--2--|

D|-----------------------------------------------|

A|-----------------------------------------------|

E|-----------------------------------------------|

 

e|--------------------------------------------------|

B|--/-3--3--3--3---3--3--3---3------3--3---3--3--3--|

G|--/-2--2--2--2---2--2--2---2-/-3--3--3---3--3--3--|

D|--------------------------------------------------|

A|--------------------------------------------------|

E|--------------------------------------------------|

e|---------------------------------------|

B|--3--3--3--3---3--3--3---3--3----3--3--|

G|--0--0--0--0---0--0--0---2--2----2--2--|

D|---------------------------------------|

A|---------------------------------------|

E|---------------------------------------|

 

e|--------------------------------------------------|-----------------------------------------------|

B|--/-3--3--3--3---3--3--3---3------3--3---3--3--3--|--3--3--3--3---3--3--3---3--3--3--3---3--3--3--|

G|--/-2--2--2--2---2--2--2---2-/-3--3--3---3--3--3--|--0--0--0--0---0--0--0---2--2--2--2---2--2--2--|

D|--------------------------------------------------|-----------------------------------------------|

A|--------------------------------------------------|-----------------------------------------------|

E|--------------------------------------------------|-----------------------------------------------|

 

e|--------------------------------------------------|-----------------------------------------------|

B|--/-3--3--3--3---3--3--3---3------3--3---3--3--3--|--3--3--3--3---3--3--3---3--3--3--3---3--3--3--|

G|--/-2--2--2--2---2--2--2---2-/-3--3--3---3--3--3--|--0--0--0--0---0--0--0---2--2--2--2---2--2--2--|

D|--------------------------------------------------|-----------------------------------------------|

A|--------------------------------------------------|-----------------------------------------------|

E|--------------------------------------------------|-----------------------------------------------|

 

 

Verse/Estrofa:

 

GUITAR 1:

 

e|---------------------------------------------------|---------------------------------------------------|

B|---------------------------------------------------|---------------------------------------------------|

G|--x--x--7--x--x--7--x--x---x--x--5--x--x--5--x--x--|--x--x--3--x--x--3--x--x---x--x--5--x--x--5--x--x--|

D|--x--x--7--x--x--7--x--x---x--x--5--x--x--5--x--x--|--x--x--3--x--x--3--x--x---x--x--5--x--x--5--x--x--|

A|--x--x--5--x--x--5--x--x---x--x--3--x--x--3--x--x--|--x--x--1--x--x--1--x--x---x--x--3--x--x--3--x--x--|

E|---------------------------------------------------|---------------------------------------------------|

 

GUITAR 2:

 

e|------------------------------------|----------------------------------------|

B|--10--10--10--10--------------------|------10--10--10------------13--11--10--|

G|------------------------------------|------------------12----12--------------|

D|--------------------12--12--10--12--|--12------------------------------------|

A|------------------------------------|----------------------------------------|

E|------------------------------------|----------------------------------------|

 

GUITAR 1:

 

e|---------------------------------------------------|---------------------------------|

B|---------------------------------------------------|---------------------------------|

G|--x--x--7--x--x--7--x--x---x--x--5--x--x--5--x--x--|--x--x--3--x--x--3--x--x---5--5--|

D|--x--x--7--x--x--7--x--x---x--x--5--x--x--5--x--x--|--x--x--3--x--x--3--x--x---5--5--|

A|--x--x--5--x--x--5--x--x---x--x--3--x--x--3--x--x--|--x--x--1--x--x--1--x--x---3--3--|

E|---------------------------------------------------|---------------------------------|

 

GUITAR 2:

 

e|--------------------------------------|

B|--10--10--10--10------------------10--|

G|--------------------------------------|

D|------------------12--12--10--12------|

A|--------------------------------------|

E|--------------------------------------|

 

GUITAR 1:

 

e|---------------------------------------------------|---------------------------------------------------|

B|---------------------------------------------------|---------------------------------------------------|

G|--x--x--7--x--x--7--x--x---x--x--5--x--x--5--x--x--|--x--x--3--x--x--3--x--x---x--x--5--x--x--5--x--x--|

D|--x--x--7--x--x--7--x--x---x--x--5--x--x--5--x--x--|--x--x--3--x--x--3--x--x---x--x--5--x--x--5--x--x--|

A|--x--x--5--x--x--5--x--x---x--x--3--x--x--3--x--x--|--x--x--1--x--x--1--x--x---x--x--3--x--x--3--x--x--|

E|---------------------------------------------------|---------------------------------------------------|

 

GUITAR 2:

 

e|----------------------------------------|----------------------------------------|

B|------10--10--10--10--------------------|------10--10--10------------13--11--10--|

G|----------------------------------------|------------------12----12--------------|

D|--12--------------------12--12--10--12--|--12------------------------------------|

A|----------------------------------------|----------------------------------------|

E|----------------------------------------|----------------------------------------|

 

GUITAR 1:

 

e|---------------------------------------------------|---------------------------------------------------|

B|---------------------------------------------------|---------------------------------------------------|

G|--x--x--7--x--x--7--x--x---x--x--5--x--x--5--x--x--|--x--x--3--x--x--3--x--x---x--x--5--x--x--5--x--x--|

D|--x--x--7--x--x--7--x--x---x--x--5--x--x--5--x--x--|--x--x--3--x--x--3--x--x---x--x--5--x--x--5--x--x--|

A|--x--x--5--x--x--5--x--x---x--x--3--x--x--3--x--x--|--x--x--1--x--x--1--x--x---x--x--3--x--x--3--x--x--|

E|---------------------------------------------------|---------------------------------------------------|

GUITAR 2:

 

e|--------------------------------------|

B|--10--10--10--10------------------10--|

G|--------------------------------------|

D|------------------12--12--10--12------|

A|--------------------------------------|

E|--------------------------------------|

Rose - Tron544
00:00 / 00:00
DONATE%20BUTTON%20(EN)_edited.png

Pre-Chorus/Pre-Estribillo:

 

GUITAR 1:

 

e|--------------------------|--------------------------|--------------------------|-------------------------|

B|--------------------------|--------------------------|--------------------------|-------------------------|

G|--3--3--3--3--3--3--3--3--|--3--3--3--3--3--3--3--3--|--3--3--3--3--3--3--3--3--|--3--3--3--3--3--3--3--3-|

D|--3--3--3--3--3--3--3--3--|--3--3--3--3--3--3--3--3--|--3--3--3--3--3--3--3--3--|--3--3--3--3--3--3--3--3-|

A|--1--1--1--1--1--1--1--1--|--1--1--1--1--1--1--1--1--|--1--1--1--1--1--1--1--1--|--1--1--1--1--1--1--1--1-|

E|--------------------------|--------------------------|--------------------------|-------------------------|

 

GUITAR 2:

 

e|--------------------|-----------------------------|-------------------------------|

B|--------------------|------------------10--8------|-------------------------------|

G|--9--9----9--10--9--|--9--9--9--9--10---------10--|--9--9--9--9--10--10----10--9--|

D|--------------------|-----------------------------|-------------------------------|

A|--------------------|-----------------------------|-------------------------------|

E|--------------------|-----------------------------|-------------------------------|

 

 

Chorus/Estribillo:

 

GUITAR 1:

 

e|------------|

B|------------|

G|--7------5--|

D|--7------5--|

A|--5------3--|

E|------------|

 

GUITAR 2:

 

e|--------------------------------------------------------|

B|------13--11--11----10--------------13--11--10--11--10--|

G|--------------------------------------------------------|

D|--12------------------------12--12----------------------|

A|--------------------------------------------------------|

E|--------------------------------------------------------|

 

GUITAR 1:

 

e|------------|

B|------------|

G|--3------2--|

D|--3------2--|

A|--1------0--|

E|------------|

 

GUITAR 2:

 

e|-------------------------------------------------------------------------------|

B|--10----10--10--10--10--10--9--10------10--10--10----10--10--10--9--10--9--10--|

G|-------------------------------------------------------------------------------|

D|-------------------------------------------------------------------------------|

A|-------------------------------------------------------------------------------|

E|-------------------------------------------------------------------------------|

 

GUITAR 1:

 

e|------------|

B|------------|

G|--7------5--|

D|--7------5--|

A|--5------3--|

E|------------|

 

GUITAR 2:

 

e|----------------------------------------10--------------|

B|------13--11--11----10--------------13------10--11--10--|

G|--------------------------------------------------------|

D|--12------------------------12--12----------------------|

A|--------------------------------------------------------|

E|--------------------------------------------------------|

 

GUITAR 1:

 

e|------------|

B|------------|

G|--3------2--|

D|--3------2--|

A|--1------0--|

E|------------|

 

GUITAR 2:

 

e|----------------------------------------------------------------------------------------|

B|--10----10--10--10--10--10--8--10------10--10--10----10----10--10----10--10--8--8-/-10--|

G|----------------------------------------------------------------------------------------|

D|----------------------------------------------------------------------------------------|

A|----------------------------------------------------------------------------------------|

E|----------------------------------------------------------------------------------------|

 

 

Outro:

 

GUITAR 1:

 

e|---------------------|---------------------|---------------------|

B|---------------------|---------------------|---------------------|

G|--7--7---10---5---3--|--7--7---10---5---3--|--7--7---10---5---3--|

D|--7--7---10---5---3--|--7--7---10---5---3--|--7--7---10---5---3--|

A|--5--5---8----3---1--|--5--5---8----3---1--|--5--5---8----3---1--|

E|---------------------|---------------------|---------------------|

 

GUITAR 2:

 

e|------------------------------|------------------10--------------|------------------------------|

B|--10--10--10--13--11--11--10--|--10--10--10--13------10--11--10--|--10--10--10--13--11--11--10--|

G|------------------------------|----------------------------------|------------------------------|

D|------------------------------|----------------------------------|------------------------------|

A|------------------------------|----------------------------------|------------------------------|

E|------------------------------|----------------------------------|------------------------------|

 

GUITAR 1:

 

e|---------------------|---------------|

B|---------------------|---------------|

G|--7--7---10---5---3--|--5--5------7--|

D|--7--7---10---5---3--|--5--5------7--|

A|--5--5---8----3---1--|--3--3------5--|

E|---------------------|---------------|

©2015 by Fefe - Tron544

Sigueme en:

  • YouTube - White Circle
  • Facebook - White Circle
  • Instagram - White Circle
  • Twitter - White Circle
This site was designed with the
.com
website builder. Create your website today.
Start Now