~ ROMANTIC AGERU YO ~

TABLATURAS ~ By Fefe - Tron544

 

Verse/Estrofa:

e|-------------------------------------------------------------|
B|-------------------------------------------------------------|
G|--------------7----------------------7---7-------10--10--10--|
D|--8---8--10------8--10---8---8--10----------10---------------|
A|-------------------------------------------------------------|
E|-------------------------------------------------------------|

e|----------------------------------------|
B|----------------------------------------|
G|--10--8--10-/-12---10--8------7--8--10--|
D|--------------------------10------------|
A|----------------------------------------|
E|----------------------------------------|

e|-------------------------------------------------------------------|
B|-------------------------------------------------------------------|
G|------------------7----------------------7--8--7-------10--10--10--|
D|--8---8--10---10-----8--10---8---8--10------------10---------------|
A|-------------------------------------------------------------------|
E|-------------------------------------------------------------------|

e|----------------------------------------------|
B|-------------8------8-------------------------|
G|--10--10--8-----10-----10--7---8-/-10--10--8--|
D|----------------------------------------------|
A|----------------------------------------------|
E|----------------------------------------------|

 


Pre-Chorus/Pre-Estribillo:

e|-------------|-----------------------------------------------------|
B|-------------|--8---8--8-----8---8---------------------------------|
G|--8--10--11--|------------7---------10--8--7--8-\-5----------7--8--|
D|-------------|-------------------------------------------10--------|
A|-------------|-----------------------------------------------------|
E|-------------|-----------------------------------------------------|

e|---------------------------------------------------------|
B|---------------------------------------------------------|
G|--10---10--10------10---10--8--7--8--8-/-10----------12--|
D|---------------10----------------------------------------|
A|---------------------------------------------------------|
E|---------------------------------------------------------|

e|---------------------------------------------------------------|
B|--11---11------11--11-h-12-----------13---11------13--11-------|
G|-----------12---------------12---12-----------12-----------12--|
D|---------------------------------------------------------------|
A|---------------------------------------------------------------|
E|---------------------------------------------------------------|

e|--------------------------------|
B|--9--9--8-----------------------|
G|-----------10-------10-/-12--8--|
D|-----------------8--------------|
A|--------------------------------|
E|--------------------------------|

 


Chorus/Estribillo:

e|-------------------------------------------------------------------|
B|--11--11--9--8--8--------------------11--11--9--8--8------8--8-----|
G|-------------------10--8--10-/-12---------------------10--------8--|
D|-------------------------------------------------------------------|
A|-------------------------------------------------------------------|
E|-------------------------------------------------------------------|

e|----------------------------------------------------|
B|----------------------------------------------------|
G|--11--11--11--11--10--8--11--11--10--8--11--10--10--|
D|----------------------------------------------------|
A|----------------------------------------------------|
E|----------------------------------------------------|

e|-------------------------------------------------------------------|
B|--11--11--9--8--8--------------------11--11--9--8--8------8--8-----|
G|-------------------10--8--10-/-12---------------------10--------8--|
D|-------------------------------------------------------------------|
A|-------------------------------------------------------------------|
E|-------------------------------------------------------------------|

e|-----------------------------------------------------------------------------------------|
B|-----------------------------------------------------------------------9--9------9-/-11--|
G|-------------------------------------8--8--8--8--8--8--10--11--11--11--------------------|
D|--10--10--10--10--10--10--10-/-12--------------------------------------------11----------|
A|-----------------------------------------------------------------------------------------|
E|-----------------------------------------------------------------------------------------|

 

 

Romantic Ageru Yo - Tron544
00:00 / 00:00

©2015 by Fefe - Tron544

Sigueme en:

  • YouTube - White Circle
  • Facebook - White Circle
  • Instagram - White Circle
  • Twitter - White Circle
This site was designed with the
.com
website builder. Create your website today.
Start Now