~ ROLLING STAR ~

TABLATURAS ~ By Fefe - Tron544

 

Intro:

 

GUITAR 1:

 

e|--2--2--2--2--2---2--2--2--2--2--|
B|--3--3--3--3--3---3--3--3--3--3--|
G|--4--4--4--4--4---2--2--2--2--2--|
D|--4--4--4--4--4---0--0--0--0--0--|
A|--2--2--2--2--2------------------|
E|---------------------------------|

 

GUITAR 2:

 

e|----------------------------------------------------------|
B|-------------------------------------10-------------------|
G|--9--11--9--11--9--11--9--11--9--11------11---11--11--11--|

D|----------------------------------------------------------|

A|----------------------------------------------------------|
E|----------------------------------------------------------|

 

GUITAR 1:

 

e|--0--0--0--0--0---3--3--3--3--3--|

B|--2--2--2--2--2---3--3--3--3--3--|

G|--2--2--2--2--2---0--0--0--0--0--|

D|--2--2--2--2--2---0--0--0--0--0--|

A|--0--0--0--0--0---2--2--2--2--2--|

E|------------------3--3--3--3--3--|

 

GUITAR 2:

 

e|-----------------------------------------------|

B|-----------------------------------------------|

G|--9------9------9------9------9--9--11--9------|

D|-----12-----12-----12-----12---------------12--|

A|-----------------------------------------------|

E|-----------------------------------------------|

 

GUITAR 1:

 

e|-----------------------------------------------------------------------------------------------------|

B|-----------------------------------------------------------------------------------------------------|

G|--4--x--x--4--x--x--4--x---7--x--x--7--x--x--7--x----------------------------------------------------|

D|--4--x--x--4--x--x--4--x---7--x--x--7--x--x--7--x---7--x--x--7--x--x--7--x---5--x--x--5--x--x--5--x--|

A|--2--x--x--2--x--x--2--x---5--x--x--5--x--x--5--x---7--x--x--7--x--x--7--x---5--x--x--5--x--x--5--x--|

E|----------------------------------------------------5--x--x--5--x--x--5--x---3--x--x--3--x--x--3--x--|

 

GUITAR 3:

 

e|--------0------------0------------0------------5-----|

B|-----3-----3------3-----3------2-----2------3-----3--|

G|--4------------2------------2------------0-----------|

D|-----------------------------------------------------|

A|-----------------------------------------------------|

E|-----------------------------------------------------|

 

GUITAR 1:

 

e|-----------------------|

B|-----------------------|

G|-----------------------|

D|--5--x--x--5--x--x--5--|

A|--5--x--x--5--x--x--5--|

E|--3--x--x--3--x--x--3--|

 

GUITAR 3:

 

e|--5--x--x--x--x--5--x--x--x--x--5--|

B|--3--x--x--x--x--3--x--x--x--x--3--|

G|--0--x--x--x--x--0--x--x--x--x--0--|

D|-----------------------------------|

A|-----------------------------------|

E|-----------------------------------|

 

 

Verse/Estrofa:

 

GUITAR 1:

 

e|---------------------------------------------------------------------------------------------------------|

B|--(7)-x--x--x--x--x--x--x-----------------------------(7)-x--x--x--x--x--x--x----------------------------|

G|----------------------------(7)-x--x--x--x--x--x--x-----------------------------(7)-x--x--x--x--x--x--x--|

D|---------------------------------------------------------------------------------------------------------|

A|---------------------------------------------------------------------------------------------------------|

E|---------------------------------------------------------------------------------------------------------|

 

GUITAR 2:

 

e|---------------------------------------------------------------------------------------------------|

B|---------------------------------------------------------------------------------------------------|

G|------11--11--11--11--11--11-h-12--11------9---9--11--11--11--11--11--11--11--11--11-h-12--11------|

D|--12-----------------------------------12------------------------------------------------------12--|

A|---------------------------------------------------------------------------------------------------|

E|---------------------------------------------------------------------------------------------------|

 

GUITAR 3:

 

e|------14------|

B|----------15--|

G|--14----------|

D|--------------|

A|--------------|

E|--------------|

 

GUITAR 1:

 

e|-----------------------------------------------------|

B|--(7)-x--x--x--x--x--x--x----------------------------|

G|----------------------------(7)-x--x--x--x--x--x--x--|

D|-----------------------------------------------------|

A|-----------------------------------------------------|

E|-----------------------------------------------------|

 

GUITAR 2:

 

e|--------------------------------------------------|

B|--------------------------------------------------|

G|------11--11--11--9-/-11--11--11-h-12--11------9--|

D|--12---------------------------------------12-----|

A|--------------------------------------------------|

E|--------------------------------------------------|

 

GUITAR 1:

 

e|-----------------------------------------------------|

B|--(7)-x--x--x--x--x--x--x----------------------------|

G|----------------------------(7)-x--x--x--x--x--x--x--|

D|-----------------------------------------------------|

A|-----------------------------------------------------|

E|-----------------------------------------------------|

 

GUITAR 2:

 

e|-------------------------------------------------------------------|

B|-------------------------------------------------------------------|

G|--9-/-11--11--11--11--11--11--11--11--11-h-12--11-----------9------|

D|---------------------------------------------------12---12-----12--|

A|-------------------------------------------------------------------|

E|-------------------------------------------------------------------|

 

 

Pre-Chorus/Pre-Estribillo:

 

GUITAR 1:

 

e|-------------------------------------------------------------|

B|-------------------------------------------------------------|

G|-------------------------------------------------------------|

D|--4--4--4--4--5---#--#---#--#---4--4--4--4--5---#--#---#--#--|

A|--4--4--4--4--5---#--#---#--#---4--4--4--4--5---#--#---#--#--|

E|--2--2--2--2--3---#--#---#--#---2--2--2--2--3---#--#---#--#--|

 

GUITAR 2:

 

e|------------------------------------------------|

B|------------------------------------------------|

G|----------------------------------------11------|

D|--11---11---11--12----11---11---11--12------12--|

A|------------------------------------------------|

E|------------------------------------------------|

 

GUITAR 3:

 

e|-----------------------------------------------------------------------|

B|-----------------------------------------------------------------------|

G|--11--11--11--11--12---#--#---#--#---11--11--11--11--12---#--#---#--#--|

D|--11--11--11--11--12---#--#---#--#---11--11--11--11--12---#--#---#--#--|

A|--9---9---9---9---10---#--#---#--#---9---9---9---9---10---#--#---#--#--|

E|-----------------------------------------------------------------------|

 

 

Chorus/Estribillo:

 

GUITAR 1:

 

e|---------------------------------------------------|

B|---------------------------------------------------|

G|--4--x--x--4--x--x--4--x---7--x--x--7--x--x--7--x--|

D|--4--x--x--4--x--x--4--x---7--x--x--7--x--x--7--x--|

A|--2--x--x--2--x--x--2--x---5--x--x--5--x--x--5--x--|

E|---------------------------------------------------|

 

GUITAR 2:

 

e|----------------------------------------------------------|

B|-------------------------------------10-------------------|

G|--9--11--9--11--9--11--9--11--9--11------11---11--11--11--|

D|----------------------------------------------------------|

A|----------------------------------------------------------|

E|----------------------------------------------------------|

 

GUITAR 3:

 

e|--10--10--9--9----------10--10--9--9----------10--10--9--9--|

B|----------------10--10----------------10--10----------------|

G|------------------------------------------------------------|

D|------------------------------------------------------------|

A|------------------------------------------------------------|

E|------------------------------------------------------------|

 

GUITAR 1:

 

e|---------------------------------------------------|

B|---------------------------------------------------|

G|---------------------------------------------------|

D|--7--x--x--7--x--x--7--x---5--x--x--5--x--x--5--x--|

A|--7--x--x--7--x--x--7--x---5--x--x--5--x--x--5--x--|

E|--5--x--x--5--x--x--5--x---3--x--x--3--x--x--3--x--|

 

GUITAR 2:

 

e|-----------------------------------------------|

B|-----------------------------------------------|

G|--9------9------9------9------9--9--11--9------|

D|-----12-----12-----12-----12---------------12--|

A|-----------------------------------------------|

E|-----------------------------------------------|

 

GUITAR 3:

 

e|--10--10--9--9----------10--10--9--9----------10--10--9--9--|

B|----------------10--10----------------10--10----------------|

G|------------------------------------------------------------|

D|------------------------------------------------------------|

A|------------------------------------------------------------|

E|------------------------------------------------------------|

 

GUITAR 1:

 

e|---------------------------------------------------|

B|---------------------------------------------------|

G|--4--x--x--4--x--x--4--x---7--x--x--7--x--x--7--x--|

D|--4--x--x--4--x--x--4--x---7--x--x--7--x--x--7--x--|

A|--2--x--x--2--x--x--2--x---5--x--x--5--x--x--5--x--|

E|---------------------------------------------------|

 

GUITAR 2:

 

e|-------------------------------------------------------------|

B|----------------------------------------10-------------------|

G|--9--9--11--9--11--9--11--9--11--9--11------11---11--11--11--|

D|-------------------------------------------------------------|

A|-------------------------------------------------------------|

E|-------------------------------------------------------------|

 

GUITAR 3:

 

e|--10--10--9--9----------10--10--9--9----------10--10--9--9--|

B|----------------10--10----------------10--10----------------|

G|------------------------------------------------------------|

D|------------------------------------------------------------|

A|------------------------------------------------------------|

E|------------------------------------------------------------|

 

GUITAR 1:

 

e|---------------------------------------------------|

B|---------------------------------------------------|

G|---------------------------------------------------|

D|--7--x--x--7--x--x--7--x---5--x--x--5--x--x--5--x--|

A|--7--x--x--7--x--x--7--x---5--x--x--5--x--x--5--x--|

E|--5--x--x--5--x--x--5--x---3--x--x--3--x--x--3--x--|

 

GUITAR 2:

 

e|-----------------------------------10----------|

B|---------------------------12--12------12--10--|

G|--9------9------9--9---------------------------|

D|-----12-----12--------12-----------------------|

A|-----------------------------------------------|

E|-----------------------------------------------|

 

GUITAR 3:

 

e|--10--10--9--9----------10--10--9--9----------10--10--9--9--|

B|----------------10--10----------------10--10----------------|

G|------------------------------------------------------------|

D|------------------------------------------------------------|

A|------------------------------------------------------------|

E|------------------------------------------------------------|

 

 

Solo:

 

GUITAR 1:

 

e|-----------------------------------------------------------------------------------------------------|

B|-----------------------------------------------------------------------------------------------------|

G|--5--x--x--5--x--x--5--x-----------------------------------------------------------------------------|

D|--5--x--x--5--x--x--5--x---5--x--x--5--x--x--5--x---7--x--x--7--x--x--7--x---7--x--x--7--x--x--7--x--|

A|--3--x--x--3--x--x--3--x---5--x--x--5--x--x--5--x---7--x--x--7--x--x--7--x---7--x--x--7--x--x--7--x--|

E|---------------------------3--x--x--3--x--x--3--x---5--x--x--5--x--x--5--x---5--x--x--5--x--x--5--x--|

 

GUITAR 3:

 

e|--11---------------------------------------------4-/-5--5--5-------------------------9--|

B|------10-b--10-----------------------------------4-/-5--5--5-------8--------------------|

G|----------------9---------------------10-b-r-b----------------7-b-----7--6-----6--7-----|

D|-------------------10------10------9----------------------------------------7-----------|

A|-----------------------10------10-------------------------------------------------------|

E|----------------------------------------------------------------------------------------|

 

 

Bridge/Puente:

 

GUITAR 1:

 

e|-----------------------------------------------------|

B|-----------------------------------------------------|

G|---------------5--5--5--5----------------7--7--7--7--|

D|--2--2--2--2---5--5--5--5---5--5--5--5---7--7--7--7--|

A|--2--2--2--2---3--3--3--3---5--5--5--5---5--5--5--5--|

E|--0--0--0--0----------------3--3--3--3---------------|

 

GUITAR 2:

 

e|----------10--------------10------------------------------------------------------|

B|-------------------------------------------10---10------10--10-h-12-------10------|

G|--12--12------12--12--12------12-------12-----------12---------------12-------12--|

D|-----------------------------------12---------------------------------------------|

A|----------------------------------------------------------------------------------|

E|----------------------------------------------------------------------------------|

 

GUITAR 3:

 

e|------------------------------------------------------------|

B|-----8--7--8------8--7--8------8--7--8--8-/-10--8--7--8--7--|

G|--7-----------7------------7--------------------------------|

D|------------------------------------------------------------|

A|------------------------------------------------------------|

E|------------------------------------------------------------|

 

GUITAR 1:

 

e|------------------------------------------------------------------------------------------|

B|------------------------------------------------------------------------------------------|

G|--5--5--5--5---4--4--4--4-----------------------------------------------------4--x--x--4--|

D|--5--5--5--5---5--5--5--5---7--x--x--x--x--x--x--x---7--x--x--7--x--x--7--x---4--x--x--4--|

A|--3--3--3--3---2--2--2--2---7--x--x--x--x--x--x--x---7--x--x--7--x--x--7--x---2--x--x--2--|

E|----------------------------5--x--x--x--x--x--x--x---5--x--x--5--x--x--5--x---------------|

 

GUITAR 2:

 

e|------------------------------------------10--|

B|-----------------------------10------10-------|

G|--11--9--------------12--12------12-----------|

D|-------------12--12---------------------------|

A|----------------------------------------------|

E|----------------------------------------------|

 

GUITAR 3:

 

e|-------------------------------------------------5--#--#--#--#--5--#--#--#--#--5--#--#---10--#--#--#--#--10--|

B|-----8--7--8------8--7--8------8--7--8--8-/-10---5--#--#--#--#--5--#--#--#--#--5--#--#---10--#--#--#--#--10--|

G|--7-----------7------------7---------------------6--#--#--#--#--6--#--#--#--#--6--#--#---8---#--#--#--#--8---|

D|-----------------------------------------------------------------------------------------9---#--#--#--#--9---|

A|-------------------------------------------------------------------------------------------------------------|

E|-------------------------------------------------------------------------------------------------------------|

 

 

Chorus/Estribillo:

 

GUITAR 1:

 

e|---------------------------------------------------|

B|---------------------------------------------------|

G|--4--x--x--4--x--x--4--x---7--x--x--7--x--x--7--x--|

D|--4--x--x--4--x--x--4--x---7--x--x--7--x--x--7--x--|

A|--2--x--x--2--x--x--2--x---5--x--x--5--x--x--5--x--|

E|---------------------------------------------------|

 

GUITAR 2:

 

e|----------------------------------------------------------|

B|-------------------------------------10-------------------|

G|--9--11--9--11--9--11--9--11--9--11------11---11--11--11--|

D|----------------------------------------------------------|

A|----------------------------------------------------------|

E|----------------------------------------------------------|

 

GUITAR 3:

 

e|--10--10--9--9----------10--10--9--9----------10--10--9--9--|

B|----------------10--10----------------10--10----------------|

G|------------------------------------------------------------|

D|------------------------------------------------------------|

A|------------------------------------------------------------|

E|------------------------------------------------------------|

 

GUITAR 1:

 

e|---------------------------------------------------|

B|---------------------------------------------------|

G|---------------------------------------------------|

D|--7--x--x--7--x--x--7--x---5--x--x--5--x--x--5--x--|

A|--7--x--x--7--x--x--7--x---5--x--x--5--x--x--5--x--|

E|--5--x--x--5--x--x--5--x---3--x--x--3--x--x--3--x--|

 

GUITAR 2:

 

e|-----------------------------------------------|

B|-----------------------------------------------|

G|--9------9------9------9------9--9--11--9------|

D|-----12-----12-----12-----12---------------12--|

A|-----------------------------------------------|

E|-----------------------------------------------|

 

GUITAR 3:

 

e|--10--10--9--9----------10--10--9--9----------10--10--9--9--|

B|----------------10--10----------------10--10----------------|

G|------------------------------------------------------------|

D|------------------------------------------------------------|

A|------------------------------------------------------------|

E|------------------------------------------------------------|

 

GUITAR 1:

 

e|---------------------------------------------------|

B|---------------------------------------------------|

G|--4--x--x--4--x--x--4--x---7--x--x--7--x--x--7--x--|

D|--4--x--x--4--x--x--4--x---7--x--x--7--x--x--7--x--|

A|--2--x--x--2--x--x--2--x---5--x--x--5--x--x--5--x--|

E|---------------------------------------------------|

 

GUITAR 2:

 

e|-------------------------------------------------------------|

B|----------------------------------------10-------------------|

G|--9--9--11--9--11--9--11--9--11--9--11------11---11--11--11--|

D|-------------------------------------------------------------|

A|-------------------------------------------------------------|

E|-------------------------------------------------------------|

 

GUITAR 3:

 

e|--10--10--9--9----------10--10--9--9----------10--10--9--9--|

B|----------------10--10----------------10--10----------------|

G|------------------------------------------------------------|

D|------------------------------------------------------------|

A|------------------------------------------------------------|

E|------------------------------------------------------------|

 

GUITAR 1:

 

e|---------------------------------------------------|

B|---------------------------------------------------|

G|---------------------------------------------------|

D|--7--x--x--7--x--x--7--x---5--x--x--5--x--x--5--x--|

A|--7--x--x--7--x--x--7--x---5--x--x--5--x--x--5--x--|

E|--5--x--x--5--x--x--5--x---3--x--x--3--x--x--3--x--|

 

GUITAR 2:

 

e|-----------------------------------10----------|

B|---------------------------12--12------12--10--|

G|--9------9------9--9---------------------------|

D|-----12-----12--------12-----------------------|

A|-----------------------------------------------|

E|-----------------------------------------------|

 

GUITAR 3:

 

e|--10--10--9--9----------10--10--9--9----------10--10--9--9--|

B|----------------10--10----------------10--10----------------|

G|------------------------------------------------------------|

D|------------------------------------------------------------|

A|------------------------------------------------------------|

E|------------------------------------------------------------|

 

 

Outro:

 

GUITAR 1:

 

e|---------------------------------------------------------------------|

B|---------------------------------------------------------------------|

G|--4--x--x--4---4---7--x--x--7---7------------------------------------|

D|--4--x--x--4---4---7--x--x--7---7---7--x--x--7---7---5--x--x--5---5--|

A|--2--x--x--2---2---5--x--x--5---5---7--x--x--7---7---5--x--x--5---5--|

E|------------------------------------5--x--x--5---5---3--x--x--3---3--|

 

GUITAR 2:

 

e|--------------------------------------------------------------------------|

B|-------------------------------------------------------10--10--10---------|

G|--9-/-11--9------9-/-11--9------9-/-11--9-------9----------------------9--|

D|--------------------------------------------12-----12--------------12-----|

A|--------------------------------------------------------------------------|

E|--------------------------------------------------------------------------|

 

GUITAR 3:

 

e|--14--------14--------12--------14----|

B|--17-b------17-b------15-b------17-b--|

G|--------------------------------------|

D|--------------------------------------|

A|--------------------------------------|

E|--------------------------------------|

 

GUITAR 1:

 

e|---------------------------------------------------|

B|---------------------------------------------------|

G|--4--x--x--4--x--x--4--x---7--x--x--7--x--x--7--x--|

D|--4--x--x--4--x--x--4--x---7--x--x--7--x--x--7--x--|

A|--2--x--x--2--x--x--2--x---5--x--x--5--x--x--5--x--|

E|---------------------------------------------------|

 

GUITAR 2:

 

e|------------------|

B|--------------10--|

G|--9-/-11----------|

D|------------------|

A|------------------|

E|------------------|

 

GUITAR 3:

 

  /~~~~~~~~~~~~~~~( WAH WAH + PHASER )~~~~~~~~~~~~~~~\

e|------------------------------------10--10--10--10--|

B|----------------------------------------------------|

G|---------------------------7--7--7------------------|

D|--9--9--9--9--9--9--9--9----------------------------|

A|----------------------------------------------------|

E|----------------------------------------------------|

 

GUITAR 1:

 

e|---------------------------------------------------|-----------------------|

B|---------------------------------------------------|-----------------------|

G|---------------------------------------------------|-----------------------|

D|--7--x--x--7--x--x--7--x---5--x--x--5--x--x--5--x--|--5--x--x--5--x--x--5--|

A|--7--x--x--7--x--x--7--x---5--x--x--5--x--x--5--x--|--5--x--x--5--x--x--5--|

E|--5--x--x--5--x--x--5--x---3--x--x--3--x--x--3--x--|--3--x--x--3--x--x--3--|

 

GUITAR 2:

 

e|-------------------10--10--10--10--10----------|

B|--10-/-12------10----------------------12--12--|

G|-----------------------------------------------|

D|-----------------------------------------------|

A|-----------------------------------------------|

E|-----------------------------------------------|

 

GUITAR 3:

 

  /~~~~~~~~~~( WAH WAH + PHASER )~~~~~~~~~~\

e|--9--9--9--9--9--9------------10--10--10--|--5--x--x--x--x--5--x--x--x--x--x--x--5--|

B|------------------------------------------|--3--x--x--x--x--3--x--x--x--x--x--x--3--|

G|------------------------------------------|--0--x--x--x--x--0--x--x--x--x--x--x--0--|

D|---------------------9--9--9--------------|-----------------------------------------|

A|------------------------------------------|-----------------------------------------|

E|------------------------------------------|-----------------------------------------|

 

 

Rolling Star - Tron544
00:00 / 00:00

©2019 by Fefe - Tron544

Sigueme en:

  • YouTube - White Circle
  • Facebook - White Circle
  • Instagram - White Circle
  • Twitter - White Circle
This site was designed with the
.com
website builder. Create your website today.
Start Now