RIVERS IN THE DESERT

PERSONA 5

TABS ~ By Fefe (Tron544)

 

Intro:

GUITAR (Rhythm):

e|-------------------------------------------------|
B|-------------------------------------------------|
G|-------------------------------------------------|
D|--5---5----#-5---5--8--#-5---5----#-5---5--8--#--|
A|--5---5----#-5---5--8--#-5---5----#-5---5--8--#--|
D|--5---5----#-5---5--8--#-5---5----#-5---5--8--#--|

  /~~~~~~~~~~~~( REPEAT x3 / REPITE x3 )~~~~~~~~~~~~\
e|---------------------------------------------------|
B|---------------------------------------------------|
G|--7---7----#-7---7--10--#-7---7----#-7---7--10--#--|
D|--5---5----#-5---5--8---#-5---5----#-5---5--8---#--|
A|--5---5----#-5---5--8---#-5---5----#-5---5--8---#--|
D|--5---5----#-5---5--8---#-5---5----#-5---5--8---#--|


Verse/Estrofa:

GUITAR (Vocals):

e|---------------------------------------------------------------|
B|---------------------------3-----------------------------------|
G|-----------------------------3-5-----------------7--7/10-------|
D|---5-5-5-5-5-5--5-5-5-5--5-------5--5-5-5-5-5-5----------------|
A|---------------------------------------------------------------|
E|---------------------------------------------------------------|

e|---------------------------------------------|
B|------------------3--------------------------|
G|--------------------3-5----2/3---------------|
D|---5-5-5-5-5-5--5-------5-------5----5/8-----|
A|---------------------------------------------|
D|---------------------------------------------|


Chorus/Estribillo:

GUITAR (Vocals):

e|----------------------|------------------------------------------------------------------------|
B|-----11/13-11--10-10--|-------10/11-----------11/13-11--10-10------10/11------11/13-11--10-10--|
G|--12------------------|--12----------------12-----------------12-----------12------------------|
D|----------------------|------------------------------------------------------------------------|
A|----------------------|------------------------------------------------------------------------|
E|----------------------|------------------------------------------------------------------------|

GUITAR (Rhythm):

e|--------------------------------------------|
B|--------------------------------------------|
G|--------------------------------------------|
D|--5-----5--3------3--2------2--3------3--5--|
A|--5-----5--3------3--3------3--3------3--5--|
D|--5-----5--3------3--2------2--3------3--5--|

GUITAR (Vocals):

e|--------------------------------------------------------------|
B|-------10/11-----------11/13-11--10-10------10/11-------------|
G|--12----------------12-----------------12---------------------|
D|--------------------------------------------------------------|
A|--------------------------------------------------------------|
E|--------------------------------------------------------------|

GUITAR (Rhythm):

e|------------------------------------------|
B|------------------------------------------|
G|------------------------------------------|
D|--5-----5--3------3--2------2--3------3---|
A|--5-----5--3------3--3------3--3------3---|
D|--5-----5--3------3--2------2--3------3---|

 


Verse/Estrofa:

GUITAR (Vocals):

e|---------------------------------------------------------------|
B|---------------------------3-----------------------------------|
G|-----------------------------3-5-----------------7--7/10-------|
D|---5-5-5-5-5-5--5-5-5-5--5-------5--5-5-5-5-5-5----------------|
A|---------------------------------------------------------------|
E|---------------------------------------------------------------|

e|-----------------------------------------------------|
B|------------------3----------------------------------|
G|--------------------3-5----2/3-----------------------|
D|---5-5-5-5-5-5--5-------5-------5----5/8-------------|
A|-----------------------------------------------------|
D|-----------------------------------------------------|


Pre-Chorus/Pre-Estribillo:

GUITAR (Vocals):

e|----------------------------------------------------------------------------------------------|
B|---------------------------3-----------------------3------------------------------------------|
G|-----------------------------3-5---------------------3-5----2/3-------------------------------|
D|---5-5-5-5-5-5--5-5-5-5--5-------5--5-5-5-5-5-5--5-------5-------5----5/8---------------------|
A|----------------------------------------------------------------------------------------------|
E|----------------------------------------------------------------------------------------------|

GUITAR (Rhythm):

e|--------------------------------------------------------------------------------------------|
B|--------------------------------------------------------------------------------------------|
G|--------------------------------------------------------------------------------------------|
D|----------------------------------5--x-x-x-5-x-3--x-x-x-x-0-3-0-5--x-x-x-5-x-3--x-x-x-3-----|
A|----------------------------------5--x-x-x-5-x-3--x-x-x-x-0-3-0-5--x-x-x-5-x-3--x-x-x-3-----|
D|----------------------------------5--x-x-x-5-x-3--x-x-x-x-0-3-0-5--x-x-x-5-x-3--x-x-x-3-----|

 


Chorus/Estribillo:

GUITAR (Vocals):

e|----------------------|---------------------------------------------------------------------|
B|-----11/13-11--10-10--|-------10/11-----------11/13-11--10-10------10/11-------------10-11--|
G|--12------------------|--12----------------12-----------------12------------------12--------|
D|----------------------|---------------------------------------------------------------------|
A|----------------------|---------------------------------------------------------------------|
E|----------------------|---------------------------------------------------------------------|

GUITAR (Rhythm):

e|--------------------------------------------|
B|--------------------------------------------|
G|-----------------------------------------5--|
D|--5-----5--3------3--2------2--3------3--5--|
A|--5-----5--3------3--3------3--3------3--3--|
D|--5-----5--3------3--2------2--3------3-----|

GUITAR (Vocals):

e|-------------------------------------------------------------------------------|
B|---11--11--11--11/13-------------------------------10--10-----11/13-11--10-10--|
G|----------------------10--10--10--10/12------10-12---------12------------------|
D|-------------------------------------------------------------------------------|
A|-------------------------------------------------------------------------------|
E|-------------------------------------------------------------------------------|

GUITAR (Rhythm):

e|---------------------------------------------|
B|---------------------------------------------|
G|-------5--7------7--9------9--10------10-10--|
D|-------5--7------7--8------8--10------10-10--|
A|-------3--5------5--7------7--8-------8--8---|
D|---------------------------------------------|

GUITAR (Vocals):

e|---------------------------------------------------------------------|
B|-------10/11-----------11/13-11--10-10------10/11------11/13-11--10--|
G|--12----------------12-----------------12-----------12---------------|
D|---------------------------------------------------------------------|
A|---------------------------------------------------------------------|
E|---------------------------------------------------------------------|

GUITAR (Rhythm):

e|--------------------------------------------|
B|--------------------------------------------|
G|-----------------------------------------5--|
D|--5-----5--3------3--2------2--3------3--5--|
A|--5-----5--3------3--3------3--3------3--3--|
D|--5-----5--3------3--2------2--3------3-----|

GUITAR (Vocals):

e|--------------------------------------------------------------------------|---------------|
B|-------10/11----11-10---11/13--11--11---------10-11-14-13---13-11--11/13--|-----11/13-----|
G|--12---------------------------------------12-----------------------------|---------------|
D|--------------------------------------------------------------------------|---------------|
A|--------------------------------------------------------------------------|---------------|
E|--------------------------------------------------------------------------|---------------|

GUITAR (Rhythm):

e|---------------------------------------------|
B|---------------------------------------------|
G|-------5--7------7--9------9--10------10-10--|
D|-------5--7------7--8------8--10------10-10--|
A|-------3--5------5--7------7--8-------8--8---|
D|---------------------------------------------|

 


Interlude/Intermedio:

GUITAR (Rhythm):

e|-----------------------------------------------------------------------------------|
B|-----------------------------------------------------------------------------------|
G|-----------------------------------------------------------------------------------|
D|--5-----5--3------3--2------2--3------3--5------5--3------3--2------2--3-----3--3--|
A|--5-----5--3------3--3------3--3------3--5------5--3------3--3------3--3-----3--3--|
D|--5-----5--3------3--2------2--3------3--5------5--3------3--2------2--3-----3--3--|

e|-----------------------------------------------------------------------------------|
B|-----------------------------------------------------------------------------------|
G|-----------------------------------------------------------------------------------|
D|--5-----5--3------3--2------2--3------3--5------5--3------3--2------2--3------3-3--|
A|--5-----5--3------3--3------3--3------3--5------5--3------3--3------3--3------3-3--|
D|--5-----5--3------3--2------2--3------3--5------5--3------3--2------2--3------3-3--|

Rivers in the Desert - Tron544
00:00 / 00:00
DONATE%20BUTTON%20(EN)_edited.png

Verse/Estrofa:

GUITAR (Vocals):

e|---------------------------------------------------------------|
B|---------------------------3-----------------------------------|
G|-----------------------------3-5-----------------7--7/10-------|
D|---5-5-5-5-5-5--5-5-5-5--5-------5--5-5-5-5-5-5----------------|
A|---------------------------------------------------------------|
E|---------------------------------------------------------------|

e|-----------------------------------------------------|
B|------------------3----------------------------------|
G|--------------------3-5----2/3-----------------------|
D|---5-5-5-5-5-5--5-------5-------5----5/8-------------|
A|-----------------------------------------------------|
D|-----------------------------------------------------|


Pre-Chorus/Pre-Estribillo:

GUITAR (Vocals):

e|----------------------------------------------------------------------------------------------|
B|---------------------------3-----------------------3------------------------------------------|
G|-----------------------------3-5---------------------3-5----2/3-------------------------------|
D|---5-5-5-5-5-5--5-5-5-5--5-------5--5-5-5-5-5-5--5-------5-------5----5/8---------------------|
A|----------------------------------------------------------------------------------------------|
E|----------------------------------------------------------------------------------------------|

GUITAR (Rhythm):

e|--------------------------------------------------------------------------------------------|
B|--------------------------------------------------------------------------------------------|
G|--------------------------------------------------------------------------------------------|
D|----------------------------------5--x-x-x-5-x-3--x-x-x-x-0-3-0-5--x-x-x-5-x-3--x-x-x-3-----|
A|----------------------------------5--x-x-x-5-x-3--x-x-x-x-0-3-0-5--x-x-x-5-x-3--x-x-x-3-----|
D|----------------------------------5--x-x-x-5-x-3--x-x-x-x-0-3-0-5--x-x-x-5-x-3--x-x-x-3-----|


Chorus/Estribillo:

GUITAR (Vocals):

e|----------------------|---------------------------------------------------------------------|
B|-----11/13-11--10-10--|-------10/11-----------11/13-11--10-10------10/11-------------10-11--|
G|--12------------------|--12----------------12-----------------12------------------12--------|
D|----------------------|---------------------------------------------------------------------|
A|----------------------|---------------------------------------------------------------------|
E|----------------------|---------------------------------------------------------------------|

GUITAR (Rhythm):

e|--------------------------------------------|
B|--------------------------------------------|
G|-----------------------------------------5--|
D|--5-----5--3------3--2------2--3------3--5--|
A|--5-----5--3------3--3------3--3------3--3--|
D|--5-----5--3------3--2------2--3------3-----|

GUITAR (Vocals):

e|-------------------------------------------------------------------------------|
B|---11--11--11--11/13-------------------------------10--10-----11/13-11--10-10--|
G|----------------------10--10--10--10/12------10-12---------12------------------|
D|-------------------------------------------------------------------------------|
A|-------------------------------------------------------------------------------|
E|-------------------------------------------------------------------------------|

GUITAR (Rhythm):

e|---------------------------------------------|
B|---------------------------------------------|
G|-------5--7------7--9------9--10------10-10--|
D|-------5--7------7--8------8--10------10-10--|
A|-------3--5------5--7------7--8-------8--8---|
D|---------------------------------------------|

GUITAR (Vocals):

e|---------------------------------------------------------------------|
B|-------10/11-----------11/13-11--10-10------10/11------11/13-11--10--|
G|--12----------------12-----------------12-----------12---------------|
D|---------------------------------------------------------------------|
A|---------------------------------------------------------------------|
E|---------------------------------------------------------------------|

GUITAR (Rhythm):

e|--------------------------------------------|
B|--------------------------------------------|
G|-----------------------------------------5--|
D|--5-----5--3------3--2------2--3------3--5--|
A|--5-----5--3------3--3------3--3------3--3--|
D|--5-----5--3------3--2------2--3------3-----|

GUITAR (Vocals):

e|--------------------------------------------------------------------------|---------------|
B|-------10/11----11-10---11/13--11--11---------10-11-14-13---13-11--11/13--|---11/13-------|
G|--12---------------------------------------12-----------------------------|---------------|
D|--------------------------------------------------------------------------|---------------|
A|--------------------------------------------------------------------------|---------------|
E|--------------------------------------------------------------------------|---------------|

GUITAR (Rhythm):

e|---------------------------------------------|
B|---------------------------------------------|
G|-------5--7------7--9------9--10------10-10--|
D|-------5--7------7--8------8--10------10-10--|
A|-------3--5------5--7------7--8-------8--8---|
D|---------------------------------------------|

 


Interlude/Intermedio:

GUITAR (Rhythm):

e|-----------------------------------------------------------------------------------|
B|-----------------------------------------------------------------------------------|
G|-----------------------------------------------------------------------------------|
D|--5-----5--3------3--2------2--3------3--5------5--3------3--2------2--3------3-3--|
A|--5-----5--3------3--3------3--3------3--5------5--3------3--3------3--3------3-3--|
D|--5-----5--3------3--2------2--3------3--5------5--3------3--2------2--3------3-3--|


Bridge/Puente:

GUITAR (Rhythm):

e|-------|------------------------------------------------------|
B|-------|------------------------------------------------------|
G|--7-8--|--10---10/12---10--10---8----7-5-7---------------7-8--|
D|-------|------------------------------------------------------|
A|-------|------------------------------------------------------|
D|-------|------------------------------------------------------|

e|-------------------------------------------------------|
B|------8--8h10-----10/11---10---------------------------|
G|--10-----------7---------------10--10--------------10--|
D|-------------------------------------------------------|
A|-------------------------------------------------------|
E|-------------------------------------------------------|

e|--------------------------------------------------------------------------|
B|--------------------------------------------------------------------------|
G|--10---8---7--5----------5-7-------7-8-10---10------10/12-----------------|
D|-----------------------8--------------------------------------------------|
A|--------------------------------------------------------------------------|

D|--------------------------------------------------------------------------|


Chorus/Estribillo:

GUITAR (Vocals):

e|-----------------------------------|---------------------------------------------------------------------|
B|--------------11/13---11----10-10--|-------10/11-----------11/13-11--10-10------10/11-------------10-11--|
G|--10/12----------------------------|--12----------------12-----------------12------------------12--------|
D|-----------------------------------|---------------------------------------------------------------------|
A|-----------------------------------|---------------------------------------------------------------------|
E|-----------------------------------|---------------------------------------------------------------------|

GUITAR (Rhythm):

e|--------------------------------------------|
B|--------------------------------------------|
G|-----------------------------------------5--|
D|--5-----5--3------3--2------2--3------3--5--|
A|--5-----5--3------3--3------3--3------3--3--|
D|--5-----5--3------3--2------2--3------3-----|

GUITAR (Vocals):

e|-------------------------------------------------------------------------------|
B|---11--11--11--11/13-------------------------------10--10-----11/13-11--10-10--|
G|----------------------10--10--10--10/12------10-12---------12------------------|
D|-------------------------------------------------------------------------------|
A|-------------------------------------------------------------------------------|
E|-------------------------------------------------------------------------------|

GUITAR (Rhythm):

e|---------------------------------------------|
B|---------------------------------------------|
G|-------5--7------7--9------9--10------10-10--|
D|-------5--7------7--8------8--10------10-10--|
A|-------3--5------5--7------7--8-------8--8---|
D|---------------------------------------------|

GUITAR (Vocals):

e|---------------------------------------------------------------------|
B|-------10/11-----------11/13-11--10-10------10/11------11/13-11--10--|
G|--12----------------12-----------------12-----------12---------------|
D|---------------------------------------------------------------------|
A|---------------------------------------------------------------------|
E|---------------------------------------------------------------------|

GUITAR (Rhythm):

e|--------------------------------------------|
B|--------------------------------------------|
G|-----------------------------------------5--|
D|--5-----5--3------3--2------2--3------3--5--|
A|--5-----5--3------3--3------3--3------3--3--|
D|--5-----5--3------3--2------2--3------3-----|

GUITAR (Vocals):

e|--------------------------------------------------------------------------|---------------|
B|-------10/11----11-10---11/13--11--11---------10-11-14-13---13-11--11/13--|-----11/13-----|
G|--12---------------------------------------12-----------------------------|---------------|
D|--------------------------------------------------------------------------|---------------|
A|--------------------------------------------------------------------------|---------------|
E|--------------------------------------------------------------------------|---------------|

GUITAR (Rhythm):

e|---------------------------------------------|
B|---------------------------------------------|
G|-------5--7------7--9------9--10------10-10--|
D|-------5--7------7--8------8--10------10-10--|
A|-------3--5------5--7------7--8-------8--8---|
D|---------------------------------------------|


Outro:

GUITAR (Rhythm):

e|-----------------------------------------------------------------------------------|
B|-----------------------------------------------------------------------------------|
G|-----------------------------------------------------------------------------------|
D|--5-----5--3------3--2------2--3------3--5------5--3------3--2------2--3------3-3--|
A|--5-----5--3------3--3------3--3------3--5------5--3------3--3------3--3------3-3--|
D|--5-----5--3------3--2------2--3------3--5------5--3------3--2------2--3------3-3--|

e|-----------------------------------------------------------------------------------|
B|-----------------------------------------------------------------------------------|
G|-----------------------------------------------------------------------------------|
D|--5-----5--3------3--2------2--3------3--5------5--3------3--2------2--3------3-3--|
A|--5-----5--3------3--3------3--3------3--5------5--3------3--3------3--3------3-3--|
D|--5-----5--3------3--2------2--3------3--5------5--3------3--2------2--3------3-3--|

©2015 by Fefe - Tron544

Sigueme en:

  • YouTube - White Circle
  • Facebook - White Circle
  • Instagram - White Circle
  • Twitter - White Circle
This site was designed with the
.com
website builder. Create your website today.
Start Now