RISE

THE RISING OF THE SHIELD HERO

TABS ~ By Fefe (Tron544)

 

Intro:

GUITAR (RHYTHM):

e|----------------------------------------------------|
B|----------------------------------------------------|
G|---------------------7--9---------------------7--9--|
D|--9--7-9--7-9--7-9---7--9--9--7-9--7-9--7-9---7--9--|
A|--9--7-9--7-9--7-9---5--7--9--7-9--7-9--7-9---5--7--|
E|--7--5-7--5-7--5-7---------7--5-7--5-7--5-7---------|

GUITAR (Vocals):

e|---------------------------------------------|
B|---------------------------------------------|
G|------------7----9/12----10--------9----7----|
D|--7----9-------------------------------------|
A|---------------------------------------------|
E|---------------------------------------------|

GUITAR (RHYTHM):

e|--------------------------------------------------------------|
B|--------------------------------------------------------------|
G|--------------------------------------------------------------|
D|--5--5-5--5-5-5--7--7-7--7-7-7--9--9-9--9-9-9--9--9-9--9-9-9--|
A|--5--5-5--5-5-5--7--7-7--7-7-7--9--9-9--9-9-9--9--9-9--9-9-9--|
E|--3--3-3--3-3-3--5--5-5--5-5-5--7--7-7--7-7-7--7--7-7--7-7-7--|

GUITAR (Vocals):

e|---------------------------------------------|
B|---------------------------------------------|
G|------------7----9/12----10--------9----7----|
D|--7----9-------------------------------------|
A|---------------------------------------------|
E|---------------------------------------------|

GUITAR (RHYTHM):

e|--------------------------------------------------------------|
B|--------------------------------------------------------------|
G|--------------------------------------------------------------|
D|--5--5-5--5-5-5--7--7-7--7-7-7--9--9-9--9-9-9--9--9-9--9-9-9--|
A|--5--5-5--5-5-5--7--7-7--7-7-7--9--9-9--9-9-9--9--9-9--9-9-9--|
E|--3--3-3--3-3-3--5--5-5--5-5-5--7--7-7--7-7-7--7--7-7--7-7-7--|

 


Verse/Estrofa:

GUITAR (Vocals):

e|----------------------------------------------------------|
B|------------------------------------------7---------------|
G|---7-7-7-7---6-7--7--7-7---6-7--7-7-7-7-9---9-9-7--6--7---|
D|-----------9-------------9--------------------------------|
A|----------------------------------------------------------|
E|----------------------------------------------------------|

GUITAR (RHYTHM):

e|------------------------------------------------------------------------------|
B|------------------------------------------------------------------------------|
G|---------------------(7)-x-x-x-x-x-x-x----------------------------------------|
D|--(9)-x-x-x-x-x-x-x--(7)-x-x-x-x-x-x-x--(5)-x-x-x-x-x-x-x--(7)-x-x-x-x-x-x-x--|
A|--(9)-x-x-x-x-x-x-x--(5)-x-x-x-x-x-x-x--(5)-x-x-x-x-x-x-x--(7)-x-x-x-x-x-x-x--|
E|--(7)-x-x-x-x-x-x-x---------------------(3)-x-x-x-x-x-x-x--(5)-x-x-x-x-x-x-x--|

GUITAR (Vocals):

e|----------------------------------------------------------|
B|-----------------------------7------------8/10--8--7------|
G|---7-7-7-7---6-7--7-7-7-7-9-----9---7-7---------------9---|
D|-----------9----------------------------------------------|
A|----------------------------------------------------------|
E|----------------------------------------------------------|

GUITAR (RHYTHM):

e|------------------------------------------------------------------------------|
B|------------------------------------------------------------------------------|
G|---------------------(7)-x-x-x-x-x-x-x----------------------------------------|
D|--(9)-x-x-x-x-x-x-x--(7)-x-x-x-x-x-x-x--(5)-x-x-x-x-x-x-x--(7)-x-x-x-x-x-x-x--|
A|--(9)-x-x-x-x-x-x-x--(5)-x-x-x-x-x-x-x--(5)-x-x-x-x-x-x-x--(7)-x-x-x-x-x-x-x--|
E|--(7)-x-x-x-x-x-x-x---------------------(3)-x-x-x-x-x-x-x--(5)-x-x-x-x-x-x-x--|


Rap:

GUITAR (RHYTHM):

e|------------------------------------------|
B|------------------------------------------|
G|------------7--x-7------------------------|
D|--9--x-9----7--x-7----5--x-5----7--x-7----|
A|--9--x-9----5--x-5----5--x-5----7--x-7----|
E|--7--x-7--------------3--x-3----5--x-5----|

GUITAR (Vocals):

e|-----------------------------------------------|
B|------------------8/10-8--7-----------7h8--7---|
G|-----------------------------9--7--9-----------|
D|-----------------------------------------------|
A|-----------------------------------------------|
E|-----------------------------------------------|

GUITAR (RHYTHM):

e|------------------------------------------|
B|------------------------------------------|
G|------------7--x-7------------------------|
D|--9--x-9----7--x-7----5--x-5----7--x-7----|
A|--9--x-9----5--x-5----5--x-5----7--x-7----|
E|--7--x-7--------------3--x-3----5--x-5----|


Pre-Chorus/Pre-Estribillo:

GUITAR (Vocals):

e|----------------------------------------------------------|
B|--7----7----7-----------------7----7----7-----------------|
G|----9----9----9--------7-7-9----9----9----9-----9-7--7/9--|
D|-----------------7-9-9-----------------------9------------|
A|----------------------------------------------------------|
E|----------------------------------------------------------|

GUITAR (RHYTHM):

e|--------------------------------------|
B|--------------------------------------|
G|--------------------------------------|
D|--5--------7--------5--------7--------|
A|--5--------7--------5--------7--------|
E|--3--------5--------3--------5--------|

GUITAR (Vocals):

e|-----------------------------------------------------------------|
B|------------------7--7h8--7--------7h8----7----------------------|
G|--7-7-7--7-7-7-9----------------------------9-7-9--9/11----------|
D|-----------------------------9-----------------------------------|
A|-----------------------------------------------------------------|
E|-----------------------------------------------------------------|

GUITAR (RHYTHM):

e|------------------------------------------------|
B|------------------------------------------------|
G|------------------------------------------------|
D|--5--------7--------9--------7-7-7-7------------|
A|--5--------7--------9--------7-7-7-7------------|
E|--3--------5--------7--------5-5-5-5------------|

Unknown Track - Unknown Artist
00:00 / 00:00
DONATE%20BUTTON%20(EN)_edited.png


Chorus/Estribillo:

GUITAR (Vocals):

e|-----|-----------------------------------------------------------------|
B|-----|--10-7---7--7--7--7--7------10-7---7-7---------------------------|
G|-----|-------9-------------------------9-----9-9-9/11--11--11-----7-9--|
D|--7--|-------------------------7--------------------------------9------|
A|-----|-----------------------------------------------------------------|
E|-----|-----------------------------------------------------------------|

GUITAR (RHYTHM):

e|--------------------------------------------------------------|
B|--------------------------------------------------------------|
G|-----------------------------------------------4--4-4--4-4-4--|
D|--5--5-5--5-5-5--7--7-7--7-7-7--4--4-4--4-4-4--4--4-4--4-4-4--|
A|--5--5-5--5-5-5--7--7-7--7-7-7--4--4-4--4-4-4--2--2-2--2-2-2--|
E|--3--3-3--3-3-3--5--5-5--5-5-5--2--2-2--2-2-2-----------------|

GUITAR (Vocals):

e|-------------------------------------------------------|
B|--7----7--------7----7-------10-7--7-----7h8p7---------|
G|-----9---9----7----9---9--------------9----------------|
D|------------7-------------7-------------------------7--|
A|-------------------------------------------------------|
E|-------------------------------------------------------|

GUITAR (RHYTHM):

e|--------------------------------------------------------------|
B|--------------------------------------------------------------|
G|--------------------------------------------------------------|
D|--2--2-2--2-2-2--4--4-4--4-4-4--5--5-5--5-5-5--7--7-7--7-7-7--|
A|--2--2-2--2-2-2--4--4-4--4-4-4--5--5-5--5-5-5--7--7-7--7-7-7--|
E|--0--0-0--0-0-0--2--2-2--2-2-2--3--3-3--3-3-3--5--5-5--5-5-5--|

GUITAR (Vocals):

e|-----------------------------------------------------------|
B|--10-7---7--7---7--7--7------10-7---7--7---7--7--7---------|
G|-------9------9-------------------9------9------------7-9--|
D|--------------------------7-------------------------9------|
A|-----------------------------------------------------------|
E|-----------------------------------------------------------|

GUITAR (RHYTHM):

e|--------------------------------------------------|
B|--------------------------------------------------|
G|--------------------------------------4--4--4--4--|
D|--5--5--5--5--7--7--7--7--4--4--4--4--4--4--4--4--|
A|--5--5--5--5--7--7--7--7--4--4--4--4--2--2--2--2--|
E|--3--3--3--3--5--5--5--5--2--2--2--2--------------|

GUITAR (Vocals):

e|-------------------------------------------------------|
B|--7----7--------7----7-------10-7--7-----7h8p7---------|
G|-----9---9--7-9----9------------------9----------------|
D|--------------------------7-------------------------7--|
A|-------------------------------------------------------|
E|-------------------------------------------------------|

GUITAR (RHYTHM):

e|--------------------------------------------------------------|
B|--------------------------------------------------------------|
G|--------------------------------------------------------------|
D|--2--2-2--2-2-2--4--4-4--4-4-4--5--5-5--5-5-5--7--7-7--7-7-7--|
A|--2--2-2--2-2-2--4--4-4--4-4-4--5--5-5--5-5-5--7--7-7--7-7-7--|
E|--0--0-0--0-0-0--2--2-2--2-2-2--3--3-3--3-3-3--5--5-5--5-5-5--|

 


Outro:

GUITAR (Vocals):

e|---------------------------------------------|
B|---------------------------------------------|
G|------------7----9/12----10--------9----7----|
D|--7----9-------------------------------------|
A|---------------------------------------------|
E|---------------------------------------------|

GUITAR (RHYTHM):

e|--------------------------------------------------------------|
B|--------------------------------------------------------------|
G|--------------------------------------------------------------|
D|--5--5-5--5-5-5--7--7-7--7-7-7--9--9-9--9-9-9--9--9-9--9-9-9--|
A|--5--5-5--5-5-5--7--7-7--7-7-7--9--9-9--9-9-9--9--9-9--9-9-9--|
E|--3--3-3--3-3-3--5--5-5--5-5-5--7--7-7--7-7-7--7--7-7--7-7-7--|

GUITAR (Vocals):

e|---------------------------------------------|
B|---------------------------------------------|
G|------------7----9/12----10--------9----7----|
D|--7----9-------------------------------------|
A|---------------------------------------------|
E|---------------------------------------------|

GUITAR (RHYTHM):

e|--------------------------------------------------------------|
B|--------------------------------------------------------------|
G|--------------------------------------------------------------|
D|--5--5-5--5-5-5--7--7-7--7-7-7--9--9-9--9-9-9--9-9-9-9--x-9---|
A|--5--5-5--5-5-5--7--7-7--7-7-7--9--9-9--9-9-9--9-9-9-9--x-9---|
E|--3--3-3--3-3-3--5--5-5--5-5-5--7--7-7--7-7-7--7-7-7-7--x-7---|

©2015 by Fefe - Tron544

Sigueme en:

  • YouTube - White Circle
  • Facebook - White Circle
  • Instagram - White Circle
  • Twitter - White Circle
This site was designed with the
.com
website builder. Create your website today.
Start Now