RING MY BELL

SORA NO OTOSHIMONO

TABS ~ By Fefe (Tron544)

 

Intro:

 

GUITAR 1:

 

e|--------------|

B|--------------|

G|--10------5---|

D|--10------5---|

A|--8-------3---|

E|--------------|

 

GUITAR 2:

 

e|-------------------------------|

B|--10------11--11-/-13----------|

G|------12---------------12--10--|

D|-------------------------------|

A|-------------------------------|

E|-------------------------------|

GUITAR 1:

 

e|------------|

B|------------|

G|--3------2--|

D|--3------2--|

A|--1------0--|

E|------------|

 

GUITAR 2:

 

e|--------------------------------------------|

B|--10------11--11-/-13-----------13--13--13--|

G|------12---------------12--10---------------|

D|--------------------------------------------|

A|--------------------------------------------|

E|--------------------------------------------|

 

GUITAR 1:

 

e|------------|

B|------------|

G|--3------5--|

D|--3------5--|

A|--1------3--|

E|------------|

 

GUITAR 2:

 

e|---------------------------|

B|--13--11--10---------------|

G|--------------10--10-/-12--|

D|---------------------------|

A|---------------------------|

E|---------------------------|

 

GUITAR 1:

 

e|----------------------------------------------------------------------------|

B|----------------------------------------------------------------------------|

G|--6--x--x--x--x--6---4--x--x--4--x--x--4---3--x--x--x--x--3---2--2----------|

D|--6--x--x--x--x--6---4--x--x--4--x--x--4---3--x--x--x--x--3---2--2---6---6--|

A|--4--x--x--x--x--4---2--x--x--2--x--x--2---1--x--x--x--x--1---0--0---6---6--|

E|---------------------------------------------------------------------4---4--|

 

GUITAR 2:

 

e|-------------------------------------------------------------------|

B|-------------------------------------------------------------------|

G|--13--11--10--11--10-----------------13--11--10---11--10-----------|

D|----------------------11--11-/-13-------------------------11-/-13--|

A|-------------------------------------------------------------------|

E|-------------------------------------------------------------------|

 

 

Verse/Estrofa:

 

GUITAR 1:

 

e|---------------------------------------------------------------------------------------------|

B|---------------------------------------------------------------------------------------------|

G|--(6)-x--x--x--x--x--x--x--------------------------------------------------------------------|

D|--(6)-x--x--x--x--x--x--x---(6)-x--x--x--x--x--x--x---(4)-x--x--x--x--x--x--4---4--4---6--6--|

A|--(4)-x--x--x--x--x--x--x---(6)-x--x--x--x--x--x--x---(4)-x--x--x--x--x--x--4---4--4---6--6--|

E|----------------------------(4)-x--x--x--x--x--x--x---(2)-x--x--x--x--x--x--2---2--2---4--4--|

 

GUITAR 2:

 

e|----------------------------------------------------------------|

B|----------------------------------------------------------------|

G|--------------------------13-------11--10-----------------------|

D|--11--11--11--11--10--11-------13----------11---11--11--13--13--|

A|----------------------------------------------------------------|

E|----------------------------------------------------------------|

 

GUITAR 1:

 

e|---------------------------------------------------------------------------------------------|

B|---------------------------------------------------------------------------------------------|

G|--(6)-x--x--x--x--x--x--x--------------------------------------------------------------------|

D|--(6)-x--x--x--x--x--x--x---(6)-x--x--x--x--x--x--x---(4)-x--x--x--x--x--x--4---4--4---6--6--|

A|--(4)-x--x--x--x--x--x--x---(6)-x--x--x--x--x--x--x---(4)-x--x--x--x--x--x--4---4--4---6--6--|

E|----------------------------(4)-x--x--x--x--x--x--x---(2)-x--x--x--x--x--x--2---2--2---4--4--|

 

GUITAR 2:

 

e|----------------------------------------------------------------|

B|----------------------------------------------------------------|

G|--------------------------13-------11--10-------10--10----------|

D|--11--11--11--11--10--11-------13----------11-----------13--13--|

A|----------------------------------------------------------------|

E|----------------------------------------------------------------|

 

GUITAR 1:

 

e|---------------------------------------------------------------------------------------------|

B|---------------------------------------------------------------------------------------------|

G|--(6)-x--x--x--x--x--x--x-------------------------------------------------------3--3---------|

D|--(6)-x--x--x--x--x--x--x---(6)-x--x--x--x--x--x--x---(4)-x--x--x--x--x--x--x---3--3---6--6--|

A|--(4)-x--x--x--x--x--x--x---(6)-x--x--x--x--x--x--x---(4)-x--x--x--x--x--x--x---1--1---6--6--|

E|----------------------------(4)-x--x--x--x--x--x--x---(2)-x--x--x--x--x--x--x----------4--4--|

 

GUITAR 2:

 

e|------------------------------------------------------------------------|

B|------------------------------------------------------------------------|

G|--------------------------13-------11--10--10------10-------------------|

D|--11--11--11--11--10--11-------13--------------13------13--11---11--13--|

A|------------------------------------------------------------------------|

E|------------------------------------------------------------------------|

 

GUITAR 1:

 

e|------------------------------------------------|

B|------------------------------------------------|

G|----------------3--3----------------------------|

D|--4--4---6--6---3--3---4--4--4--4---6--6--6--6--|

A|--4--4---6--6---1--1---4--4--4--4---6--6--6--6--|

E|--2--2---4--4----------2--2--2--2---4--4--4--4--|

 

GUITAR 2:

 

e|--------------------------------------------------------|

B|---------------11---------------------------------------|

G|--10--11--13-------10-----------------------------------|

D|-----------------------13--11---10--11--13------10--11--|

A|--------------------------------------------13----------|

E|--------------------------------------------------------|

Ring My Bell - Tron544
00:00 / 00:00
DONATE%20BUTTON%20(EN)_edited.png

Pre-Chorus/Pre-Estribillo:

 

GUITAR 1:

 

e|-----------------15--------------------------------|

B|---------------------------------------------------|

G|----------8--8-------15----------------------------|

D|--8--8----8--8------------4--4--4--4---6--6--6--6--|

A|--8--8----6--6------------4--4--4--4---6--6--6--6--|

E|--6--6--------------------2--2--2--2---4--4--4--4--|

 

GUITAR 2:

 

e|--------------------------------------------------------------|

B|--------------------------------------------------------------|

G|--------------13---13--13--12-------11---13--13---------------|

D|------10--11-------------------13----------------13-------10--|

A|--13--------------------------------------------------13------|

E|--------------------------------------------------------------|

 

GUITAR 1:

 

e|-----------------18--17--15----------------------------|

B|-------------------------------------------------------|

G|----------8--8-----------------------------------------|

D|--8--8----8--8----------------4--4--4--4---6--6--6--6--|

A|--8--8----6--6----------------4--4--4--4---6--6--6--6--|

E|--6--6------------------------2--2--2--2---4--4--4--4--|

 

GUITAR 2:

 

e|----------------------------------------------------------------------|

B|----------------------------------------------------------------------|

G|------13---13--13--12--------11--10--11--10---------------------------|

D|--11-------------------13--------------------13--11--13---10--11--13--|

A|----------------------------------------------------------------------|

E|----------------------------------------------------------------------|

 

GUITAR 1:

 

e|--------------------------------------------------------------|

B|--------------------------------------------------------------|

G|-------------------------------------4--4--4--4---6--6--6--6--|

D|--4--4---4--4---6--6---6--6---6--6---4--4--4--4---6--6--6--6--|

A|--4--4---4--4---6--6---6--6---6--6---2--2--2--2---4--4--4--4--|

E|--2--2---2--2---4--4---4--4---4--4----------------------------|

 

GUITAR 2:

 

e|--------------------------------------------------|

B|--------------------------------------------------|

G|--11--10------------11--10------------------------|

D|-----------13--11------------13--11---11--13--11--|

A|--------------------------------------------------|

E|--------------------------------------------------|

 

 

Chorus/Estribillo:

 

GUITAR 1:

 

e|---------------------------------------------------------------|

B|---------------------------------------------------------------|

G|--10--10--10--10---5--5--5--5--5---3--3--3--3---2--2--2--2--2--|

D|--10--10--10--10---5--5--5--5--5---3--3--3--3---2--2--2--2--2--|

A|--8---8---8---8----3--3--3--3--3---1--1--1--1---0--0--0--0--0--|

E|---------------------------------------------------------------|

 

GUITAR 2:

 

e|-------------------------------------------------------------|

B|--10------11--11-/-13-----------10------11--11-/-13----------|

G|------12---------------12--10-------12---------------12--10--|

D|-------------------------------------------------------------|

A|-------------------------------------------------------------|

E|-------------------------------------------------------------|

 

GUITAR 1:

 

e|-----------------------------------------------------------|

B|-----------------------------------------------------------|

G|---------------2--2--2--2--2---3--3--3--3---5--5--5--5--5--|

D|--5--5--5--5---2--2--2--2--2---3--3--3--3---5--5--5--5--5--|

A|--5--5--5--5---0--0--0--0--0---1--1--1--1---3--3--3--3--3--|

E|--3--3--3--3-----------------------------------------------|

 

GUITAR 2:

 

e|---------------------------------------------------------------------|

B|---------------------------------------------10--11--10------13--13--|

G|----------9--10---9--9--10--12---10--10--12--------------12----------|

D|--12--12-------------------------------------------------------------|

A|---------------------------------------------------------------------|

E|---------------------------------------------------------------------|

 

GUITAR 1:

 

e|---------------------------------------------------------------|

B|---------------------------------------------------------------|

G|--10--10--10--10---5--5--5--5--5---3--3--3--3---2--2--2--2--2--|

D|--10--10--10--10---5--5--5--5--5---3--3--3--3---2--2--2--2--2--|

A|--8---8---8---8----3--3--3--3--3---1--1--1--1---0--0--0--0--0--|

E|---------------------------------------------------------------|

 

GUITAR 2:

 

e|-------------------------------------------------------------|

B|--10------11--11-/-13-----------10------11--11-/-13----------|

G|------12---------------12--10-------12---------------12--10--|

D|-------------------------------------------------------------|

A|-------------------------------------------------------------|

E|-------------------------------------------------------------|

 

GUITAR 1:

 

e|-----------------------------------------------------------|

B|-----------------------------------------------------------|

G|---------------2--2--2--2--2---3--3--3--3---5--5--5--5--5--|

D|--5--5--5--5---2--2--2--2--2---3--3--3--3---5--5--5--5--5--|

A|--5--5--5--5---0--0--0--0--0---1--1--1--1---3--3--3--3--3--|

E|--3--3--3--3-----------------------------------------------|

 

GUITAR 2:

 

e|------------------------------------------------------------------------------|

B|--13--13--13--13--11--10-----------------13--13--13--13--11--10---------------|

G|--------------------------10--10-/-12----------------------------10--10-/-12--|

D|------------------------------------------------------------------------------|

A|------------------------------------------------------------------------------|

E|------------------------------------------------------------------------------|

 

GUITAR 1:

 

e|-----------------------------------------------------------|

B|-----------------------------------------------------------|

G|--7--7---5--5--5--5--5---3--3---3--3---5--5---5--5---5--5--|

D|--7--7---5--5--5--5--5---3--3---3--3---5--5---5--5---5--5--|

A|--5--5---3--3--3--3--3---1--1---1--1---3--3---3--3---3--3--|

E|-----------------------------------------------------------|

 

GUITAR 2:

 

e|----------------------------------------------------------------------------------|

B|----------------------10--------------11--10------------11--10--------------------|

G|--10--12--10---9--10-------9--10--12-----------12--10------------12--10---10--12--|

D|----------------------------------------------------------------------------------|

A|----------------------------------------------------------------------------------|

E|----------------------------------------------------------------------------------|

 

GUITAR 1:

 

e|--------------------------------------------------|

B|--------------------------------------------------|

G|--10--10--10--10--10--10--10--x--x--x--x--10--10--|

D|--10--10--10--10--10--10--10--x--x--x--x--10--10--|

A|--8---8---8---8---8---8---8---x--x--x--x--8---8---|

E|--------------------------------------------------|

 

GUITAR 2:

 

e|------|

B|------|

G|--10--|

D|------|

A|------|

E|------|

©2015 by Fefe - Tron544

Sigueme en:

  • YouTube - White Circle
  • Facebook - White Circle
  • Instagram - White Circle
  • Twitter - White Circle
This site was designed with the
.com
website builder. Create your website today.
Start Now