RIGHTFULLY

GOBLIN SLAYER

TABS ~ By Fefe (Tron544)

 

Verse/Estrofa:

e|-------------------------------------------------------------------|
B|-------------------------------------------------------------------|
G|------9-11-12--------9-11/12--12-----------------------------------|
D|--9------------7-/-9-------------12------9h10--9----7---7-9--------|
A|------------------------------------------------------------9--10--|
E|-------------------------------------------------------------------|

e|---------------------------------------------------|
B|---------------------------------------------------|
G|----9-11-12--9h11-9----------9-11-12--9/11-9h11-9--|
D|--9------------------------9-----------------------|
A|---------------------------------------------------|
E|---------------------------------------------------|

 


Chorus/Estribillo:

e|------------------------------------------------------|
B|-----------------------------------------10-12-12/13--|
G|------------------------------8--9-----9--------------|
D|--9--------------------10--9---------9----------------|
A|------10-----10-10-12---------------------------------|
E|---------12-------------------------------------------|

e|-------------------------------------------------------------------------------------|
B|-------------------------------------------------------------------------------------|
G|--12-/-14---------------------------8/9-----------------------9--9/12---12h14p12\11--|
D|-------------12-\-9--------7-/-9---------10--------10-/-11---------------------------|
A|-------------------------------------------------------------------------------------|
E|-------------------------------------------------------------------------------------|

e|------------------------------------------------------------------------|
B|------------12--13/15---13h15p13------------12--13--12------------------|
G|--11/12---------------------------12--14----------------12--11--12------|
D|--------------------------------------------------------------------14--|
A|------------------------------------------------------------------------|
E|------------------------------------------------------------------------|

e|--------12------------------------------------------11--11h12---------11-/-12--|
B|-----------15-13-12-13----------12--13--12------12-----------------------------|
G|-----11-------------------14----------------12---------------------------------|
D|--14---------------------------------------------------------------------------|
A|-------------------------------------------------------------------------------|
E|-------------------------------------------------------------------------------|

Rightfully - Tron544
00:00 / 00:00
DONATE%20BUTTON%20(EN)_edited.png

Outro:

e|---------------------------------------------------------------------------|
B|--------------------------------------------------------12-13-12h13p12-----|
G|-----------------------------------------------------14----------------14--|
D|--14-14-14-14-13--14-14-14-14-13--14-14-14-14-13--14-----------------------|
A|---------------------------------------------------------------------------|
E|---------------------------------------------------------------------------|

e|--------------------------------------------------------------------|
B|--------------------------------------------------------------------|
G|---------------------------------------------------------14/16------|
D|--14-14-14-14-13--14-14-14-14-13--14-14-14-14-13--13/14---------16--|
A|--------------------------------------------------------------------|
E|--------------------------------------------------------------------|

e|---------------------------------------------------------------------------|
B|--------------------------------------------------------12-13-12h13p12-----|
G|-----------------------------------------------------14----------------14--|
D|--14-14-14-14-13--14-14-14-14-13--14-14-14-14-13--14-----------------------|
A|---------------------------------------------------------------------------|
E|---------------------------------------------------------------------------|

e|---------------------------------------------------------------------------|
B|-----------------------------------------------------12-13-12--------------|
G|--------------------------------------------------------------12-11-12-----|
D|--14-14-14-14-13--14-14-14-14-13--14-14-14-14-13--14-------------------14--|
A|---------------------------------------------------------------------------|
E|---------------------------------------------------------------------------|

©2015 by Fefe - Tron544

Sigueme en:

  • YouTube - White Circle
  • Facebook - White Circle
  • Instagram - White Circle
  • Twitter - White Circle
This site was designed with the
.com
website builder. Create your website today.
Start Now