~ REWRITE ~

TABLATURAS ~ By Fefe - Tron544

 

Intro:

 

GUITAR 1:

 

e|---------------------------|

B|---------------------------|

G|--11--11--9--9--9--16--16--|

D|---------------------------|

A|--9---9---7--7--7--14--14--|
E|---------------------------|

 

GUITAR 3:

 

e|------------------------------------|

B|------------------------------------|

G|--6--6--6--6--6---------------------|

D|--6--6--6--6--6---7--7--7--7--7--7--|

A|--4--4--4--4--4---7--7--7--7--7--7--|

E|------------------5--5--5--5--5--5--|

 

GUITAR 1:

 

e|----------------------------------------------------|

B|----------------------------------------------------|

G|--11--11--9--9--9--16--16---16--16--16--16--16--16--|

D|----------------------------------------------------|

A|--9---9---7--7--7--14--14---14--14--14--14--14--14--|

E|----------------------------------------------------|

 

GUITAR 3:

 

e|------------------------------------|

B|------------------------------------|

G|------------------9--9--9--9--9--9--|

D|--9--9--9--9--9---9--9--9--9--9--9--|

A|--9--9--9--9--9---7--7--7--7--7--7--|

E|--7--7--7--7--7---------------------|

 

GUITAR 1:

 

e|------------------------------------------------------------|

B|------------------------------------------------------------|

G|------------------------------------------------------------|

D|-----2-----6--6--6--4--2--4--2------2-----6--6--6--7--6--7--|

A|--0-----0------------------------2-----2--------------------|

E|------------------------------------------------------------|

 

GUITAR 3:

 

e|-----------------------------------------------------------------------|

B|-----------------------------------------------------------------------|

G|-----------------------------------------------------9--9--9--9--9--9--|

D|--7--7--7--7--7---7--7--7--7--7--7---9--9--9--9--9---9--9--9--9--9--9--|

A|--7--7--7--7--7---7--7--7--7--7--7---9--9--9--9--9---7--7--7--7--7--7--|

E|--5--5--5--5--5---5--5--5--5--5--5---7--7--7--7--7---------------------|

 

 

First Verse/Primera Estrofa:

 

GUITAR 1:

 

e|------------------------------------------------|------------------------------------------------|

B|------------------------------------------------|------------------------------------------------|

G|-----------1-----4--1---------------1-----------|-----------1-----4--1---------------1-----------|

D|-----2--------2--------2------2--------2--4--2--|-----2--------2--------2------2--------2--4--2--|

A|--0-----0------------------2-----2--------------|--0-----0------------------2-----2--------------|

E|------------------------------------------------|------------------------------------------------|

 

GUITAR 2:

 

e|-----------------------------------------|-----------------------------------------|

B|-----------------------------------------|-----------------------------------------|

G|-----9--8--6-----------------------------|-----9--8--6-----------------------------|

D|--------------6-----------6--6--------6--|--6-----------6-----------6--6-----------|

A|--7--------------9--7--7--------9--7-----|-----------------9--7--7--------9--7--7--|

E|-----------------------------------------|-----------------------------------------|

 

GUITAR 1:

 

e|------------------------------------------------|------------------------------------------------|

B|------------------------------------------------|------------------------------------------------|

G|-----------1-----4--1---------------1-----------|-----------1-----4--1---------------1-----------|

D|-----2--------2--------2------2--------2--4--2--|-----2--------2--------2------2--------2--4--2--|

A|--0-----0------------------2-----2--------------|--0-----0------------------2-----2--------------|

E|------------------------------------------------|------------------------------------------------|

 

GUITAR 2:

 

e|-----------------------------------------|-----------------------------------------|

B|-----------------------------------------|-----------------------------------------|

G|-----9--8--6-----------------------------|-----9--8--6-----------------------------|

D|--------------6-----------6--6--------6--|--6-----------6-----------6--6-----------|

A|--7--------------9--7--7--------9--7-----|-----------------9--7--7--------9--7--7--|

E|-----------------------------------------|-----------------------------------------|

 

 

Interlude/Intermedio:

 

GUITAR 1:

 

e|------------------------------------------------------------|

B|------------------------------------------------------------|

G|------------------------------------------------------------|

D|-----2-----6--6--6--4--2--4--2------2-----6--6--6--7--6--7--|

A|--0-----0------------------------2-----2--------------------|

E|------------------------------------------------------------|

 

GUITAR 3:

 

e|-----------------------------------------------------------------------|

B|-----------------------------------------------------------------------|

G|-----------------------------------------------------9--9--9--9--9--9--|

D|--7--7--7--7--7---7--7--7--7--7--7---9--9--9--9--9---9--9--9--9--9--9--|

A|--7--7--7--7--7---7--7--7--7--7--7---9--9--9--9--9---7--7--7--7--7--7--|

E|--5--5--5--5--5---5--5--5--5--5--5---7--7--7--7--7---------------------|

 

 

Second Verse/Segunda Estrofa:

 

GUITAR 1:

 

e|------------------------------------------------|------------------------------------------------|

B|------------------------------------------------|------------------------------------------------|

G|-----------1-----4--1---------------1-----------|-----------1-----4--1---------------1-----------|

D|-----2--------2--------2------2--------2--4--2--|-----2--------2--------2------2--------2--4--2--|

A|--0-----0------------------2-----2--------------|--0-----0------------------2-----2--------------|

E|------------------------------------------------|------------------------------------------------|

 

GUITAR 2:

 

e|-----------------------------------------|-----------------------------------------|

B|-----------------------------------------|-----------------------------------------|

G|-----9--8--6-----------------------------|-----9--8--6-----------------------------|

D|--------------6-----------6--6--------6--|--6-----------6-----------6--6-----------|

A|--7--------------9--7--7--------9--7-----|-----------------9--7--7--------9--7--7--|

E|-----------------------------------------|-----------------------------------------|

 

GUITAR 3:

 

e|------------------|------------------|

B|------------------|------------------|

G|--9------9--9--9--|--9------9--9--9--|

D|--9------9--9--9--|--9------9--9--9--|

A|--7------7--7--7--|--7------7--7--7--|

E|------------------|------------------|

 

GUITAR 1:

 

e|--------------------------|

B|--------------------------|

G|-----------1-----4--1-----|

D|-----2--------2--------2--|

A|--0-----0-----------------|

E|--------------------------|

 

GUITAR 2:

 

e|--------------------------|

B|--------------------------|

G|-----9--8--6--------------|

D|--------------6-----------|

A|--7--------------9--7--7--|

E|--------------------------|

 

GUITAR 3:

 

e|-----------------------------------------------------------|

B|-----------------------------------------------------------|

G|--9--9--9--9--9--9--9--9---11--11--11--11--11--11--11--11--|

D|-----------------------------------------------------------|

A|--7--7--7--7--7--7--7--7---9---9---9---9---9---9---9---9---|

E|-----------------------------------------------------------|

 

GUITAR 1:

 

e|-----------------------|

B|-----------------------|

G|-----------1-----------|

D|-----2--------2--4--2--|

A|--2-----2--------------|

E|-----------------------|

 

GUITAR 2:

 

e|-----------------|

B|-----------------|

G|-----------------|

D|--6--6--------6--|

A|--------9--7-----|

E|-----------------|

 

GUITAR 3:

 

e|-----------------------------------------------------------|

B|-----------------------------------------------------------|

G|--9--9--9--9--9--9--9--9---11--11--11--11--11--11--11--11--|

D|-----------------------------------------------------------|

A|--7--7--7--7--7--7--7--7---9---9---9---9---9---9---9---9---|

E|-----------------------------------------------------------|

 

GUITAR 1:

 

e|------------------------------------------------|

B|------------------------------------------------|

G|-----------1-----4--1---------------1-----------|

D|-----2--------2--------2------2--------2--4--2--|

A|--0-----0------------------2-----2--------------|

E|------------------------------------------------|

 

GUITAR 2:

 

e|-----------------------------------------|

B|-----------------------------------------|

G|-----9--8--6-----------------------------|

D|--6-----------6-----------6--6-----------|

A|-----------------9--7--7--------9--7--7--|

E|-----------------------------------------|

 

GUITAR 3:

 

e|----------------------------------------------------------------------------------------------------|

B|----------------------------------------------------------------------------------------------------|

G|--9--9--9--9--9--9--9--9---11--11--11--11--11--11--11--11---9--9--9--9--9--9--9--9---9--9--9--9--9--|

D|-------------------------------------------------------------------------------------9--9--9--9--9--|

A|--7--7--7--7--7--7--7--7---9---9---9---9---9---9---9---9----7--7--7--7--7--7--7--7---7--7--7--7--7--|

E|----------------------------------------------------------------------------------------------------|

 

 

Chorus/Estribillo:

 

GUITAR 1:

 

e|--------------------------------------------------------------------------------------------------------|

B|--------------------------------------------------------------------------------------------------------|

G|--11--11--9--9--9--16--16---16--16--16--16--16--16----11--11--9--9--9--16--16---16--16--16--16--16--16--|

D|--------------------------------------------------------------------------------------------------------|

A|--9---9---7--7--7--14--14---14--14--14--14--14--14----9---9---7--7--7--14--14---14--14--14--14--14--14--|

E|--------------------------------------------------------------------------------------------------------|

 

GUITAR 2:

 

e|-----|--------------------------------------|

B|-----|--7-/-9-------------7-/-9-------------|

G|-----|--------------6--9--------------6--9--|

D|--6--|-----------9-----------------9--------|

A|-----|--------------------------------------|

E|-----|--------------------------------------|

 

GUITAR 3:

 

e|-----------------------------------------------------------------------------|

B|-----------------------------------------------------------------------------|

G|-----------------------------------------------------------------------------|

D|--7--7--7--7--7--7---7--7--7--7--7--7---6--6--6--6--6--6---6--6--6--6--6--6--|

A|--7--7--7--7--7--7---7--7--7--7--7--7---7--7--7--7--7--7---7--7--7--7--7--7--|

E|--5--5--5--5--5--5---5--5--5--5--5--5---4--4--4--4--4--4---4--4--4--4--4--4--|

 

GUITAR 1:

 

e|--------------------------------------------------------------------------------------------------------|

B|--------------------------------------------------------------------------------------------------------|

G|--11--11--9--9--9--16--16---16--16--16--16--16--16----11--11--9--9--9--16--16---16--16--16--16--16--16--|

D|--------------------------------------------------------------------------------------------------------|

A|--9---9---7--7--7--14--14---14--14--14--14--14--14----9---9---7--7--7--14--14---14--14--14--14--14--14--|

E|--------------------------------------------------------------------------------------------------------|

 

GUITAR 2:

 

e|------------------------------------------------------|

B|--7-h-9--7--9--7------------7-h-9--7--9--7--9---------|

G|----------------------6--9----------------------6--9--|

D|-------------------9----------------------------------|

A|------------------------------------------------------|

E|------------------------------------------------------|

 

GUITAR 3:

 

e|-----------------------------------------------------------------------------|

B|-----------------------------------------------------------------------------|

G|-----------------------------------------------------------------------------|

D|--7--7--7--7--7--7---7--7--7--7--7--7---6--6--6--6--6--6---6--6--6--6--6--6--|

A|--7--7--7--7--7--7---7--7--7--7--7--7---7--7--7--7--7--7---7--7--7--7--7--7--|

E|--5--5--5--5--5--5---5--5--5--5--5--5---4--4--4--4--4--4---4--4--4--4--4--4--|

 

GUITAR 1:

 

e|--------------------------------------------------------------------------------------------------------|

B|--------------------------------------------------------------------------------------------------------|

G|--11--11--9--9--9--16--16---16--16--16--16--16--16----11--11--9--9--9--16--16---16--16--16--16--16--16--|

D|--------------------------------------------------------------------------------------------------------|

A|--9---9---7--7--7--14--14---14--14--14--14--14--14----9---9---7--7--7--14--14---14--14--14--14--14--14--|

E|--------------------------------------------------------------------------------------------------------|

 

GUITAR 2:

 

e|--------------------------------------|

B|--7-/-9-------------7-/-9-------------|

G|--------------6--9--------------6--9--|

D|-----------9-----------------9--------|

A|--------------------------------------|

E|--------------------------------------|

 

GUITAR 3:

 

e|-----------------------------------------------------------------------------|

B|-----------------------------------------------------------------------------|

G|-----------------------------------------------------------------------------|

D|--7--7--7--7--7--7---7--7--7--7--7--7---6--6--6--6--6--6---6--6--6--6--6--6--|

A|--7--7--7--7--7--7---7--7--7--7--7--7---7--7--7--7--7--7---7--7--7--7--7--7--|

E|--5--5--5--5--5--5---5--5--5--5--5--5---4--4--4--4--4--4---4--4--4--4--4--4--|

 

GUITAR 1:

 

e|--------------------------------------------------------------------------------------------------------|

B|--------------------------------------------------------------------------------------------------------|

G|--11--11--9--9--9--16--16---16--16--16--16--16--16----11--11--9--9--9--16--16---16--16--16--16--16--16--|

D|--------------------------------------------------------------------------------------------------------|

A|--9---9---7--7--7--14--14---14--14--14--14--14--14----9---9---7--7--7--14--14---14--14--14--14--14--14--|

E|--------------------------------------------------------------------------------------------------------|

 

GUITAR 2:

 

e|-----------------------------------------------------------|

B|--7-h-9--7--9--7------------7-h-9--7--9--7--9--7--9--7-----|

G|----------------------6--9------------------------------9--|

D|-------------------9---------------------------------------|

A|-----------------------------------------------------------|

E|-----------------------------------------------------------|

 

GUITAR 3:

 

e|-----------------------------------------------------------------------------|

B|-----------------------------------------------------------------------------|

G|-----------------------------------------------------------------------------|

D|--7--7--7--7--7--7---7--7--7--7--7--7---6--6--6--6--6--6---6--6--6--6--6--6--|

A|--7--7--7--7--7--7---7--7--7--7--7--7---7--7--7--7--7--7---7--7--7--7--7--7--|

E|--5--5--5--5--5--5---5--5--5--5--5--5---4--4--4--4--4--4---4--4--4--4--4--4--|

 

GUITAR 1:

 

e|--------------------------------------------------------------------------------------------------------|

B|--------------------------------------------------------------------------------------------------------|

G|--11--11--9--9--9--16--16---16--16--16--16--16--16----11--11--9--9--9--16--16---16--16--16--16--16--16--|

D|--------------------------------------------------------------------------------------------------------|

A|--9---9---7--7--7--14--14---14--14--14--14--14--14----9---9---7--7--7--14--14---14--14--14--14--14--14--|

E|--------------------------------------------------------------------------------------------------------|

 

GUITAR 2:

 

e|---------------------|

B|-----7------------7--|

G|--9-----9--9---------|

D|---------------------|

A|---------------------|

E|---------------------|

 

GUITAR 3:

 

e|-----------------------------------------------------------------------------|

B|-----------------------------------------------------------------------------|

G|-----------------------------------------------------------------------------|

D|--7--7--7--7--7--7---7--7--7--7--7--7---6--6--6--6--6--6---6--6--6--6--6--6--|

A|--7--7--7--7--7--7---7--7--7--7--7--7---7--7--7--7--7--7---7--7--7--7--7--7--|

E|--5--5--5--5--5--5---5--5--5--5--5--5---4--4--4--4--4--4---4--4--4--4--4--4--|

 

GUITAR 1:

 

e|--------------------------------------------------------------------------------------------------------|

B|--------------------------------------------------------------------------------------------------------|

G|--11--11--9--9--9--16--16---16--16--16--16--16--16----11--11--9--9--9--16--16---16--16--16--16--16--16--|

D|--------------------------------------------------------------------------------------------------------|

A|--9---9---7--7--7--14--14---14--14--14--14--14--14----9---9---7--7--7--14--14---14--14--14--14--14--14--|

E|--------------------------------------------------------------------------------------------------------|

 

GUITAR 2:

 

e|----------------------------------|

B|----------------------------------|

G|--9--9------------6--6--8--8-h-9--|

D|------------9--9------------------|

A|----------------------------------|

E|----------------------------------|

 

GUITAR 3:

 

e|-----------------------------------------------------------------------------|

B|-----------------------------------------------------------------------------|

G|-----------------------------------------------------------------------------|

D|--7--7--7--7--7--7---7--7--7--7--7--7---6--6--6--6--6--6---6--6--6--6--6--6--|

A|--7--7--7--7--7--7---7--7--7--7--7--7---7--7--7--7--7--7---7--7--7--7--7--7--|

E|--5--5--5--5--5--5---5--5--5--5--5--5---4--4--4--4--4--4---4--4--4--4--4--4--|

 

 

Outro:

 

GUITAR 1:

 

e|------------------------------------------------------------------------------|

B|------------------------------------------------------------------------------|

G|--11--11--9--9--9--16--16---16--16--16--16--16--16---11--11--9--9--9--16--16--|

D|------------------------------------------------------------------------------|

A|--9---9---7--7--7--14--14---14--14--14--14--14--14---9---9---7--7--7--14--14--|

E|------------------------------------------------------------------------------|

 

GUITAR 3:

 

e|--------------------------------------------------------|

B|--------------------------------------------------------|

G|--6--6--6--6--6-----------------------------------------|

D|--6--6--6--6--6---7--7--7--7--7--7---9--9--9--9--9---2--|

A|--4--4--4--4--4---7--7--7--7--7--7---9--9--9--9--9---2--|

E|------------------5--5--5--5--5--5---7--7--7--7--7---0--|

 

 

 

Rewrite - Tron544
00:00 / 00:00

©2019 by Fefe - Tron544

Sigueme en:

  • YouTube - White Circle
  • Facebook - White Circle
  • Instagram - White Circle
  • Twitter - White Circle
This site was designed with the
.com
website builder. Create your website today.
Start Now