RESONANCE

SOUL EATER

TABS ~ By Fefe (Tron544)

 

Intro:

 

GUITAR 1:

 

e|----------------------|
B|----------------------|
G|--6--6----------4--4--|
D|--6--6---7--7---4--4--|
A|--4--4---7--7---2--2--|
E|---------5--5---------|

 

GUITAR 2:

 

e|--16-b----16--|
B|--------------|
G|--------------|
D|--------------|
A|--------------|
E|--------------|

 

GUITAR 1:

 

  /~~~~~~~~~~( REPEAT x3 / REPITE x3 )~~~~~~~~~\
e|----------------------------------------------|------------------------|
B|----------------------------------------------|------------------------|
G|----------------------------------------------|------------------------|
D|----------------------------------------------|------------------------|
A|---------------------4------4--6--7--6--4-----|---------------------4--|
E|--5--4--5--7---5--7------7-----------------7--|--5--4--5--7---5--7-----|

 


First Chorus/Primer Estribillo:

 

GUITAR 1:

 

e|-------------------------------------------------------------------------------------------|
B|-------------------------------------------------------------------------------------------|
G|-------------------------------------------------------------------------------------------|
D|-------------------------------------------------------------------------------------------|
A|---------------------4------4--6--7--6--4-------------------------4------4--6--7--6--4-----|
E|--5--4--5--7---5--7------7-----------------7---5--4--5--7---5--7------7-----------------7--|

 

GUITAR 2:

 

e|----------------------------------------------------------------------------------|
B|--9--10---------------------------------------------------------------------------|
G|----------11--9---9--9--9--11--8--9-------------------9---9--11------------9--11--|
D|-------------------------------------11---9--11---11--------------11---11---------|
A|----------------------------------------------------------------------------------|
E|----------------------------------------------------------------------------------|

 

GUITAR 1:

 

e|-------------------------------------------------------------------------------------------|
B|-------------------------------------------------------------------------------------------|
G|-------------------------------------------------------------------------------------------|
D|-------------------------------------------------------------------------------------------|
A|---------------------4------4--6--7--6--4-------------------------4------4--6--7--6--4-----|
E|--5--4--5--7---5--7------7-----------------7---5--4--5--7---5--7------7-----------------7--|

 

GUITAR 2:

 

e|----------------------------------------------------------------------|
B|--9--10---------------------------------------------------------------|
G|----------11--9---9--9--9--11--8--9-------------------9---9--11-------|
D|-------------------------------------11---9--11---11--------------11--|
A|----------------------------------------------------------------------|
E|----------------------------------------------------------------------|

 


Verse/Estrofa:

 

GUITAR 1:

 

e|---------------------------------------------------------------------------------------------|
B|---------------------------------------------------------------------------------------------|
G|---------------------------------------------------------------------------------------------|
D|---------------------------------------------------------------------------------------------|
A|--3--3--6--3---3--6--3---6--6--4--6---6--4--6---4--4-----4---4--4--6---3--3--6--3---3--6--3--|
E|------------------------------------------------------6--------------------------------------|

 

GUITAR 2:

 

e|--15------16-b------16----13--15--|
B|----------------------------------|
G|----------------------------------|
D|----------------------------------|
A|----------------------------------|
E|----------------------------------|

 

GUITAR 1:

 

e|---------------------------------------------------------------------------------------------|
B|---------------------------------------------------------------------------------------------|
G|---------------------------------------------------------------------------------------------|
D|---------------------------------------------------------------------------------------------|
A|--3--3--6--3---3--6--3---6--6--4--6---6--4--6---4--4-----4---4--4--6---3--3--6--3---3--6--3--|
E|------------------------------------------------------6--------------------------------------|

 

GUITAR 2:

 

e|--15------16-b------16----18--15--|
B|----------------------------------|
G|----------------------------------|
D|----------------------------------|
A|----------------------------------|
E|----------------------------------|

 

GUITAR 1:

 

e|---------------------------------------------------------------------------------------------|
B|---------------------------------------------------------------------------------------------|
G|---------------------------------------------------------------------------------------------|
D|---------------------------------------------------------------------------------------------|
A|--3--3--6--3---3--6--3---6--6--4--6---6--4--6---4--4-----4---4--4--6---3--3--6--3---3--6--3--|
E|------------------------------------------------------6--------------------------------------|

 

GUITAR 2:

 

e|---------------------------------------------------------------------------|
B|--8---------------------------------------------------------8--------------|
G|-----10--8---------------------8----------8--10--8--10--10--------------8--|
D|-------------10--10--8--10--8------8--10------------------------10--10-----|
A|---------------------------------------------------------------------------|
E|---------------------------------------------------------------------------|

 

GUITAR 1:

 

e|---------------------------------------------------------------------------------------------|
B|---------------------------------------------------------------------------------------------|
G|---------------------------------------------------------------------------------------------|
D|---------------------------------------------------------------------------------------------|
A|--3--3--6--3---3--6--3---6--6--4--6---6--4--6---4--4-----4---4--4--6---3--3--6--3---3--6--3--|
E|------------------------------------------------------6--------------------------------------|

 

GUITAR 2:

 

e|---------------------------------------------------------------------------------|
B|--8--8-------------------------------------------------------------------8-------|
G|--------10--8-------------------------------------8--10--10--8--10---10----------|
D|----------------10--10--8--10--10--8--10---8--10-----------------------------10--|
A|---------------------------------------------------------------------------------|
E|---------------------------------------------------------------------------------|

resonance - Tron544
00:00 / 00:00
DONATE%20BUTTON%20(EN)_edited.png

Pre-Chorus/Pre-Estribillo:

 

GUITAR 1:

 

e|-----------------------------------------------------------------|
B|-----------------------------------------------------------------|
G|---------3------5------3-------------3------5--5----------3--3---|
D|--6------3------5------3------6------3------5--5---6--6---3--3---|
A|--6------1------3------1------6------1------3--3---6--6---1--1---|
E|--4---------------------------4--------------------4--4----------|

 

GUITAR 2:

 

e|-------------------------------------------------------------------------------------------|
B|-------------------------------------------------------------------------------------------|
G|--8--10--8--10---8--10--8--10--8--7---------------------7--8--10--8--10---8--10--8--7------|
D|--------------------------------------8-------------10---------------------------------10--|
A|------------------------------------------8---10-------------------------------------------|
E|-------------------------------------------------------------------------------------------|

 


Second Chorus/Segundo Estribillo:

 

GUITAR 1:

 

e|-------------------------------------------------------------------------------------------|
B|-------------------------------------------------------------------------------------------|
G|-------------------------------------------------------------------------------------------|
D|-------------------------------------------------------------------------------------------|
A|---------------------4------4--6--7--6--4-------------------------4------4--6--7--6--4-----|
E|--5--4--5--7---5--7------7-----------------7---5--4--5--7---5--7------7-----------------7--|

 

GUITAR 2:

 

e|----------------------------------------------------------------------------------|
B|--9--10---------------------------------------------------------------------------|
G|----------11--9---9--9--9--11--8--9-------------------9---9--11------------9--11--|
D|-------------------------------------11---9--11---11--------------11---11---------|
A|----------------------------------------------------------------------------------|
E|----------------------------------------------------------------------------------|

 

GUITAR 1:

 

e|-------------------------------------------------------------------------------------------|
B|-------------------------------------------------------------------------------------------|
G|-------------------------------------------------------------------------------------------|
D|-------------------------------------------------------------------------------------------|
A|---------------------4------4--6--7--6--4-------------------------4------4--6--7--6--4-----|
E|--5--4--5--7---5--7------7-----------------7---5--4--5--7---5--7------7-----------------7--|

 

GUITAR 2:

 

e|----------------------------------------------------------------------|
B|--9--10---------------------------------------------------------------|
G|----------11--9---9--9--9--11--8--9-------------------9---9--11-------|
D|-------------------------------------11---9--11---11--------------11--|
A|----------------------------------------------------------------------|
E|----------------------------------------------------------------------|

 

GUITAR 1:

 

e|-------------------------------------------------------------------------------------------|
B|-------------------------------------------------------------------------------------------|
G|-------------------------------------------------------------------------------------------|
D|-------------------------------------------------------------------------------------------|
A|---------------------4------4--6--7--6--4-------------------------4------4--6--7--6--4-----|
E|--5--4--5--7---5--7------7-----------------7---5--4--5--7---5--7------7-----------------7--|

 

GUITAR 2:

 

e|----------------------------------------------------------------------------------|
B|--9--10---------------------------------------------------------------------------|
G|----------11--9---9--9--9--11--8--9-------------------9---9--11------------9--11--|
D|-------------------------------------11---9--11---11--------------11---11---------|
A|----------------------------------------------------------------------------------|
E|----------------------------------------------------------------------------------|

 

GUITAR 1:

 

e|-------------------------------------------------------------------------------------------|
B|-------------------------------------------------------------------------------------------|
G|-------------------------------------------------------------------------------------------|
D|-------------------------------------------------------------------------------------------|
A|---------------------4------4--6--7--6--4-------------------------4------4--6--7--6--4-----|
E|--5--4--5--7---5--7------7-----------------7---5--4--5--7---5--7------7-----------------7--|

 

GUITAR 2:

 

e|----------------------------------------------------------------------|
B|--9--10---------------------------------------------------------------|
G|----------11--9---9--9--9--11--8--9-------------------9---9--11-------|
D|-------------------------------------11---9--11---11--------------11--|
A|----------------------------------------------------------------------|
E|----------------------------------------------------------------------|

 


Outro:

 

GUITAR 1:

 

e|--------------------------------|
B|--------------------------------|
G|--------------------------------|
D|--------------------------------|
A|--------------------------------|
E|--5--4--5--5-/-7---5--7--7-/-9--|

 

GUITAR 2:

 

e|----------------------------------------|
B|--10--9--10--10-/-12---10--12--12-/-14--|
G|----------------------------------------|
D|----------------------------------------|
A|----------------------------------------|
E|----------------------------------------|

©2015 by Fefe - Tron544

Sigueme en:

  • YouTube - White Circle
  • Facebook - White Circle
  • Instagram - White Circle
  • Twitter - White Circle
This site was designed with the
.com
website builder. Create your website today.
Start Now