~ RESISTER ~

TABLATURAS ~ By Fefe - Tron544

 
 

Intro:

GUITAR (Vocals):

eb|-------------|------------------------------------------|
Bb|-------------|----------------14-----14--15-------------|
Gb|--14-14--16--|--16/18---14-16-----16--------16--14--14--|
Db|-------------|------------------------------------------|
Ab|-------------|------------------------------------------|
Eb|-------------|------------------------------------------|

GUITAR (Rhythm):

eb|---------------------------------------|
Bb|---------------------------------------|
Gb|--(11)-x-x-x-x-x-x-x--x-x-x-x-x-x-x-x--|
Db|--(11)-x-x-x-x-x-x-x--x-x-x-x-x-x-x-x--|
Ab|--(9)--x-x-x-x-x-x-x--x-x-x-x-x-x-x-x--|
Eb|---------------------------------------|

GUITAR (Vocals):

eb|---------------------------------------------------------------------------|
Bb|---------17----------------------------------------------------------------|
Gb|--16--16-----14--13---------------------------13--14-13--------------------|
Db|----------------------------16--16--16--16-16------------14--14/16---------|
Ab|---------------------------------------------------------------------------|
Eb|---------------------------------------------------------------------------|

GUITAR (Rhythm):

eb|--------------------------------------------------------|
Bb|--------------------------------------------------------|
Gb|--(9)-x-x-x-x-x-x-x--x-x-x-x-x-x-x-x--4--------6--------|
Db|--(9)-x-x-x-x-x-x-x--x-x-x-x-x-x-x-x--4--------6--------|
Ab|--(7)-x-x-x-x-x-x-x--x-x-x-x-x-x-x-x--2--------4--------|
Eb|--------------------------------------------------------|

GUITAR (Rhythm):

eb|-----------------------------|
Bb|-----------------------------|
Gb|--7--7--#-7-#-7--7-#-7--7----|
Db|--7--7--#-7-#-7--7-#-7--7-2--|
Ab|--5--5--#-5-#-5--5-#-5--5-2--|
Eb|--------------------------0--|

GUITAR (Lead):

eb|--9-----|---------17-------16-------14-----------------------|
Bb|--12-b--|------------------------------------17-------15-----|
Gb|--------|--14-14-----14-14----14-14----14-14----14-14----14--|
Db|--------|----------------------------------------------------|
Ab|--------|----------------------------------------------------|
Eb|--------|----------------------------------------------------|

GUITAR (Lead Harmony):

eb|--------21-------19--------------------------------|
Bb|--------------------------22-------21-------19-----|
Gb|--18-18----18-18----18-18----18-18----18-18----18--|
Db|---------------------------------------------------|
Ab|---------------------------------------------------|
Eb|---------------------------------------------------|

GUITAR (Rhythm):

eb|-----------------------------|
Bb|-----------------------------|
Gb|-----------------------------|
Db|--4--4--#-4-#-4--4-#-4--4-4--|
Ab|--4--4--#-4-#-4--4-#-4--4-4--|
Eb|--2--2--#-2-#-2--2-#-2--2-2--|

GUITAR (Lead):

eb|------------------------------14----16-b-r-b---|
Bb|--------14----14-15----17----------------------|
Gb|--13-13----13-------13-----13----13------------|
Db|-----------------------------------------------|
Ab|-----------------------------------------------|
Eb|-----------------------------------------------|

GUITAR (Lead Harmony):

eb|-----------------------16-----17----19-b-r-b--|
Bb|--------17----17-19---------------------------|
Gb|--16-16----16-------16-----16----16-----------|
Db|----------------------------------------------|
Ab|----------------------------------------------|
Eb|----------------------------------------------|

 


Verse/Estrofa:

GUITAR (Vocals):

eb|----------------------------------------------------------|
Bb|----------------------------------------------------------|
Gb|--9--9-9--9--9--11--9-------------------------------------|
Db|-----------------------7-7-7-7h9--7-9--9/12--11--------7--|
Ab|----------------------------------------------------------|
Eb|----------------------------------------------------------|

eb|-----------------------------------------------------|
Bb|-----------------------------------9--10-9-----------|
Gb|--------------------------------------------9--------|
Db|--7-9-9-9-9-11--7-7-9-9-9-9-11--11-------------9/11--|
Ab|-----------------------------------------------------|
Eb|-----------------------------------------------------|

GUITAR (Vocals):

eb|----------------------------------------------------------|
Bb|----------------------------------------------------------|
Gb|--9--9--9--9-9--11--9-------------------------------------|
Db|-----------------------7-7-7-7h9--7-9--9/12--11--------7--|
Ab|----------------------------------------------------------|
Eb|----------------------------------------------------------|

GUITAR (Rhythm):

eb|--------------------------------------------------------------|
Bb|--5-/-7-\-5-/-7-\-5-------5-----5-/-7-\-5-/-7-\-5-------5-----|
Gb|---------------------6-6---------------------------6-6--------|
Db|--------------------------------------------------------------|
Ab|--------------------------------------------------------------|
Eb|--------------------------------------------------------------|

GUITAR (Vocals):

eb|--------------------------------------------------------------------|
Bb|-----------------------------------10/12--10--9--------------7/9----|
Gb|-------------------------------------------------11--10--11---------|
Db|--7-9-9-9-9-11--7-7-9-9-9-9-11--11----------------------------------|
Ab|--------------------------------------------------------------------|
Eb|--------------------------------------------------------------------|

GUITAR (Rhythm):

eb|-------------------------------------------------------------|
Bb|--5-/-7-\-5-/-7-\-5-------5-----5-/-7-\-5-/-7-\-6------------|
Gb|---------------------6-6-------------------------------------|
Db|-------------------------------------------------------------|
Ab|-------------------------------------------------------------|
Eb|-------------------------------------------------------------|

 


Pre-Chorus/Pre-Estribillo:

GUITAR (Vocals):

eb|--------------------------------------------------------------|
Bb|---------9h10--9----------------------------------------------|
Gb|--9--11-------------9--11--11/12---11h12--11-9--------9/11----|
Db|------------------------------------------------11------------|
Ab|--------------------------------------------------------------|
Eb|--------------------------------------------------------------|

GUITAR (Rhythm):

eb|--5--------4--------7--------5--------|
Bb|--7--------5--------8--------7--------|
Gb|--7--------4--------9--------6--------|
Db|--------------------------------------|
Ab|--------------------------------------|
Eb|--------------------------------------|

GUITAR (Vocals):

eb|-------------------------------------------------------------|
Bb|------------------------------9-10-9----9-10-12-12/14--------|
Gb|---9/11--9-11-9-11-9-11----11--------------------------------|
Db|-------------------------------------------------------------|
Ab|-------------------------------------------------------------|
Eb|-------------------------------------------------------------|

GUITAR (Rhythm):

eb|---------------------------------------------------------------------------------|
Bb|---------------------------------------------------------------------------------|
Gb|--4--x-x-x-x-x-x--(5)-x-x-x-x-x-x-x--6-6-#-6-6-6-#-6--6-6-6-6-6-6-6-6-6(PH)------|
Db|--4--x-x-x-x-x-x--(4)-x-x-x-x-x-x-x--6-6-#-6-6-6-#-6--6-6-6-6-6-6-6-6------------|
Ab|--2--x-x-x-x-x-x--(3)-x-x-x-x-x-x-x--4-4-#-4-4-4-#-4--4-4-4-4-4-4-4-4------------|
Eb|---------------------------------------------------------------------------------|


Chorus/Estribillo:

GUITAR (Vocals):

eb|-------------|----------------------------------------------------------------------|
Bb|-------------|----------------14-----14--15-------------------17--------------------|
Gb|--14-14--16--|--16/18---14-16-----16--------16--14--14-16--16-----14--13------------|
Db|-------------|------------------------------------------------------------------14--|
Ab|-------------|----------------------------------------------------------------------|
Eb|-------------|----------------------------------------------------------------------|

GUITAR (Rhythm):

eb|------------------------------------------------------------|
Bb|------------------------------------------------------------|
Gb|------------------------------------------------------------|
Db|--4--4-4--4-4-4-4--4-4--4-4-4--2--2-2--2-2-2-2--2-2--2-2-2--|
Ab|--4--4-4--4-4-4-4--4-4--4-4-4--2--2-2--2-2-2-2--2-2--2-2-2--|
Eb|--2--2-2--2-2-2-2--2-2--2-2-2--0--0-0--0-0-0-0--0-0--0-0-0--|

GUITAR (Vocals):

eb|-------------------------------------------------------------------------------|
Bb|--------------------------------------------------------------------15--14-----|
Gb|-----------------14--------------------14--14-14h16--14--13--------------------|
Db|--16-14-16-14-16-----14-16-14-16-14-16-----------------------16--15------------|
Ab|-------------------------------------------------------------------------------|
Eb|-------------------------------------------------------------------------------|

GUITAR (Rhythm):

eb|-----------------------------------------------------------|
Bb|-----------------------------------------------------------|
Gb|--7--7-7--7-7-7-7--7-7--7-7-7--9--9-9--9-9-9--6-7-6(PH)----|
Db|--7--7-7--7-7-7-7--7-7--7-7-7--9--9-9--9-9-9--6-7----------|
Ab|--5--5-5--5-5-5-5--5-5--5-5-5--7--7-7--7-7-7--4-5----------|
Eb|-----------------------------------------------------------|

GUITAR (Vocals):

eb|---------------------------------------------------------------------------|
Bb|--14---------14-----14--15----------------------------17-------------------|
Gb|-------14-16-----16--------16--14--14-16-14-16-14-16------14--14-13----14--|
Db|---------------------------------------------------------------------------|
Ab|---------------------------------------------------------------------------|
Eb|---------------------------------------------------------------------------|

GUITAR (Rhythm):

eb|------------------------------------------------------------|
Bb|------------------------------------------------------------|
Gb|------------------------------------------------------------|
Db|--4--4-4--4-4-4-4--4-4--4-4-4--2--2-2--2-2-2-2--2-2--2-2-2--|
Ab|--4--4-4--4-4-4-4--4-4--4-4-4--2--2-2--2-2-2-2--2-2--2-2-2--|
Eb|--2--2-2--2-2-2-2--2-2--2-2-2--0--0-0--0-0-0-0--0-0--0-0-0--|

GUITAR (Vocals):

eb|--------------------------------------------------------------------------------|
Bb|--------------------------------------------------------------------------------|
Gb|-----------------14--------------------14--14-14h16--14--13---------------------|
Db|--16-14-16-14-16-----14-16-14-16-14-16-----------------------16--15----16/18----|
Ab|--------------------------------------------------------------------------------|
Eb|--------------------------------------------------------------------------------|

GUITAR (Rhythm):

eb|------------------------------------------------------------|
Bb|------------------------------------------------------------|
Gb|--7--7-7--7-7-7-8--8-8--8-8-8--9--9-9--9-9-9-6--6-6--6-6-6--|
Db|--7--7-7--7-7-7-9--9-9--9-9-9--9--9-9--9-9-9-6--6-6--6-6-6--|
Ab|--5--5-5--5-5-5-6--6-6--6-6-6--7--7-7--7-7-7-4--4-4--4-4-4--|
Eb|------------------------------------------------------------|

GUITAR (Vocals):

eb|--------------------------------------------------------------|
Bb|-----------------------15/17----------------------------------|
Gb|----------16/18--16-------------13------14-13-----------------|
Db|--16-------------------------------------------16-14-/-16-----|
Ab|--------------------------------------------------------------|
Eb|--------------------------------------------------------------|

GUITAR (Rhythm):

eb|------------------------------------------------------------------------|
Bb|------------------------------------------------------------------------|
Gb|--7--7-7--7-7-7-9--9-9--9-9-9--11--11-11--11-11-11-11--11-11--11-11-11--|
Db|--7--7-7--7-7-7-9--9-9--9-9-9--11--11-11--11-11-11-11--11-11--11-11-11--|
Ab|--5--5-5--5-5-5-7--7-7--7-7-7--9---9--9---9--9--9--9---9--9---9--9--9---|
Eb|------------------------------------------------------------------------|

GUITAR (Vocals):

eb|------------------------------------------|
Bb|------------------------------------------|
Gb|--------------------13--14-13-------------|
Db|--16--16--16--16-16------------14--14/16--|
Ab|------------------------------------------|
Eb|------------------------------------------|

GUITAR (Rhythm):

eb|---------------------------|
Bb|---------------------------|
Gb|--4-x-x-4-x-x-4-x-6--------|
Db|--4-x-x-4-x-x-4-x-6--------|
Ab|--2-x-x-2-x-x-2-x-4--------|
Eb|---------------------------|

 


Outro:

GUITAR (Vocals):

eb|-------------------------------------------------|
Bb|----------------------------15/17--17\14---------|
Gb|----------------14/16---14-----------------------|
Db|-------------------------------------------------|
Ab|-------------------------------------------------|
Eb|-------------------------------------------------|

GUITAR (Rhythm):

eb|------------------------------------------------------------|
Bb|------------------------------------------------------------|
Gb|--7--7-7--7-7-7-7--7-7--7-7-7--6--6-6--6-6-6-6--6-6--6-6-6--|
Db|--7--7-7--7-7-7-7--7-7--7-7-7--6--6-6--6-6-6-6--6-6--6-6-6--|
Ab|--5--5-5--5-5-5-5--5-5--5-5-5--4--4-4--4-4-4-4--4-4--4-4-4--|
Eb|------------------------------------------------------------|

GUITAR (Lead):

eb|-------------------------------------------16/17---16---17--17b--|
Bb|-----------------------------17-------17-------------------------|
Gb|-------14---14h16---14---16------16------------------------------|
Db|--16-------------------------------------------------------------|
Ab|-----------------------------------------------------------------|
Eb|-----------------------------------------------------------------|

GUITAR (Vocals):

eb|---------------------------------------|
Bb|--15/17--------------------------------|
Gb|---------------------------------------|
Db|---------------------------------------|
Ab|---------------------------------------|
Eb|---------------------------------------|

GUITAR (Rhythm):

eb|-----------------------------------------------|
Bb|-----------------------------------------------|
Gb|----------------------------------------7-7-7--|
Db|--4---7---9---7---9--2--4---2---7---6---7-7-7--|
Ab|--4---7---9---7---9--2--4---2---7---6---5-5-5--|
Eb|--2---5---7---5---7--0--2---0---5---4----------|

GUITAR (Lead):

 

eb|--17-----------------------------16/17---16-------------|
Bb|--------------------17/19---17----------------17-17-17--|
Gb|--------------------------------------------------------|
Db|--------------------------------------------------------|
Ab|--------------------------------------------------------|
Eb|--------------------------------------------------------|

 

RESISTER - Tron544
00:00 / 00:00

©2019 by Fefe - Tron544

Sigueme en:

  • YouTube - White Circle
  • Facebook - White Circle
  • Instagram - White Circle
  • Twitter - White Circle
This site was designed with the
.com
website builder. Create your website today.
Start Now