RENAI CIRCULATION

BAKEMONOGATARI

TABS ~ By Fefe (Tron544)

 

Intro:

GUITAR (Vocals):

e|-------|--------------------------------------|
B|-------|--------------------------------------|
G|--9----|----------9-9--9-----------9-13--9----|
D|----9--|--11-11-9--------9-11-11-9---------9--|
A|-------|--------------------------------------|
E|-------|--------------------------------------|

GUITAR (Rhythm): Palm mute

e|----------------------------------------|
B|-----------12-----------------12--------|
G|---9-9-9-9----9-9-9---9-9-9-9----9-9-9--|
D|----------------------------------------|
A|----------------------------------------|
E|----------------------------------------|

GUITAR (Vocals):

e|-------------------------------------|
B|-------------------------------------|
G|-------------9-9-9-11-9-9-9----13----|
D|--11-11-11-9----------------11-------|
A|-------------------------------------|
E|-------------------------------------|

GUITAR (Rhythm): Palm mute

e|--------------------------------------|
B|-----------12-----------------12------|
G|---9-9-9-9----9-9-9---9-9-9-9---------|
D|--------------------------------------|
A|--------------------------------------|
E|--------------------------------------|

GUITAR (Vocals):

e|-----------------------------------------------------------------------------------|
B|---------------------------------------------------------------10p9----------------|
G|--9-9-11h12-13-9-------9-9-11h12-13-9-----9----9-----9----9--9------9-----11/13----|
D|------------------9h11-----------------11---11----11---11--------------13----------|
A|-----------------------------------------------------------------------------------|
E|-----------------------------------------------------------------------------------|

GUITAR (Rhythm): Palm mute

e|-------------------------------------------------------------------------------|
B|-----------12-----------------12-----------------12-----------------12---------|
G|---9-9-9-9----9-9-9---9-9-9-9----9-9-9---9-9-9-9----9-9-9---9-9-9-9----9-9-9---|
D|-------------------------------------------------------------------------------|
A|-------------------------------------------------------------------------------|
E|-------------------------------------------------------------------------------|

GUITAR (Vocals):

e|-------------------------------------------------------------------------------|
B|---------------------------------------------------------------10p9------------|
G|--9-9-11h12-13-9-------9-9-11h12-13-9-----9----9-----9----9--9------9--11-9----|
D|------------------9h11-----------------11---11----11---11----------------------|
A|-------------------------------------------------------------------------------|
E|-------------------------------------------------------------------------------|

GUITAR (Rhythm): Palm mute

e|-------------------------------------------------------------------------------|
B|-----------12-----------------12-----------------12-----------------12---------|
G|---9-9-9-9----9-9-9---9-9-9-9----9-9-9---9-9-9-9----9-9-9---9-9-9-9----9-9-9---|
D|-------------------------------------------------------------------------------|
A|-------------------------------------------------------------------------------|
E|-------------------------------------------------------------------------------|

 


Verse/Estrofa: x2

GUITAR (Rhythm): Palm mute

e|-------------------------------------------------------------------------------------|
B|-----------12--------------------12-----------------12--------------------12---------|
G|---9-9-9-9----11-11-11---9-9-9-9----9-9-9---9-9-9-9----11-11-11---9-9-9-9----9-9-9---|
D|-------------------------------------------------------------------------------------|
A|-------------------------------------------------------------------------------------|
E|-------------------------------------------------------------------------------------|

 


Pre-Chorus/Pre-Estribillo:

GUITAR (Vocals):

e|--------------------------------------------------------------------------------------|
B|--9-10-9-10-10/12--9-10-9-10-10/12--12-10-9-10-9----------9---------------------------|
G|-------------------------------------------------9-9-9------9-9-9----9-9-9-9----13----|
D|-------------------------------------------------------11---------11---------11-------|
A|--------------------------------------------------------------------------------------|
E|--------------------------------------------------------------------------------------|

GUITAR (Rhythm): Palm mute

e|--------------------------------------------------------------------------------------|
B|-----------12------------------------12-----------------12-----------------12---------|
G|---9-9-9-9----11-11-11---11-11-11-11----9-9-9---9-9-9-9----9-9-9---9-9-9-9----9-9-9---|
D|--------------------------------------------------------------------------------------|
A|--------------------------------------------------------------------------------------|
E|--------------------------------------------------------------------------------------|

GUITAR (Vocals):

e|-------------------------------------------------------------------------------------|
B|--9-10-9-10-10/12--9-10-9-10-10/12--12-10-9-10-9----------9--------------------------|
G|-------------------------------------------------9-9-9------9-9-9-11-9-9-9-9-13-9----|
D|-------------------------------------------------------11----------------------------|
A|-------------------------------------------------------------------------------------|
E|-------------------------------------------------------------------------------------|

GUITAR (Rhythm): Palm mute

e|----------------------------------------------------------------------------------|
B|-----------12------------------------12-----------------12------------------------|
G|---9-9-9-9----11-11-11---11-11-11-11----9-9-9---9-9-9-9----9-9-9---9-9-9-9-9------|
D|----------------------------------------------------------------------------------|
A|----------------------------------------------------------------------------------|
E|----------------------------------------------------------------------------------|

Renai Circulation - Tron544
00:00 / 00:00
DONATE%20BUTTON%20(EN)_edited.png

Chorus/Estribillo:

GUITAR (Vocals):

e|---------------------------------9-----------------------------|
B|--12--9------9-9---------------9----9---------------9----------|
G|---------11------11-9-11-13------------11--9-9-9-11---11-------|
D|---------------------------------------------------------------|
A|---------------------------------------------------------------|
E|---------------------------------------------------------------|

GUITAR (Rhythm): Palm mute

e|----------------------------------------------------------------------------------|
B|-----------12-----------------14-----------------14-----------------12------------|
G|---9-9-9-9----9-9-9---9-9-9-9----9-9-9---9-9-9-9----9-9-9---9-9-9-9----11-11-11---|
D|----------------------------------------------------------------------------------|
A|----------------------------------------------------------------------------------|
E|----------------------------------------------------------------------------------|

GUITAR (Vocals):

e|---------------------------------9----------------------|
B|--12--9------9-9---------------9----9-----7/9-----------|
G|---------11------11-9-11-13------------9-------9--------|
D|--------------------------------------------------------|
A|--------------------------------------------------------|
E|----------------------------
----------------------------|

GUITAR (Rhythm): Palm mute

e|---------------------------------------------------------------------------|
B|-----------12-----------------12-----------------12------------------------|
G|---9-9-9-9----9-9-9---9-9-9-9----9-9-9---9-9-9-9----9-9-9---9-9-9-9-9------|
D|---------------------------------------------------------------------------|
A|---------------------------------------------------------------------------|
E|---------------------------------------------------------------------------|


Outro:

GUITAR (Vocals):

e|-------|----------------------------------------------------------------------------|
B|-------|----------------------------------------------------------------------------|
G|--9----|----------9-9--9-----------9-13--9--------------9-9-9-11-9-9-9----13---9----|
D|----9--|--11-11-9--------9-11-11-9---------9-11-11-11-9----------------11--------9--|
A|-------|----------------------------------------------------------------------------|
E|-------|----------------------------------------------------------------------------|

GUITAR (Rhythm): Palm mute

e|-------------------------------------------------------------------------------|
B|-----------12-----------------12-----------------12-----------------12---------|
G|---9-9-9-9----9-9-9---9-9-9-9----9-9-9---9-9-9-9----9-9-9---9-9-9-9----9-9-9---|
D|-------------------------------------------------------------------------------|
A|-------------------------------------------------------------------------------|
E|-------------------------------------------------------------------------------|

GUITAR (Vocals):

e|-----------------------------------------------------------------------|
B|-----------------------------------------------------------------------|
G|----------9-9--9-----------13-9--9--------------9-9-9-11-9-9-9-13-9----|
D|--11-11-9--------9-11-11-9---------9-11-11-11-9------------------------|
A|-----------------------------------------------------------------------|
E|-----------------------------------------------------------------------|

GUITAR (Rhythm): Palm mute

e|--------------------------------------------------------------------|
B|-----------12-----------------12-----------------12-----------------|
G|---9-9-9-9----9-9-9---9-9-9-9----9-9-9---9-9-9-9----9-9-9--9--------|
D|--------------------------------------------------------------------|
A|--------------------------------------------------------------------|
E|--------------------------------------------------------------------|

©2015 by Fefe - Tron544

Sigueme en:

  • YouTube - White Circle
  • Facebook - White Circle
  • Instagram - White Circle
  • Twitter - White Circle
This site was designed with the
.com
website builder. Create your website today.
Start Now