RE:MAKE

ONE OK ROCK

TABS ~ By Fefe (Tron544)

 

First Verse/Primera Estrofa:

 

e|----------------------------------------------------|

B|----------------------------------------------------|

G|----------------------------------------------------|

D|--(9)-x--x--x--x--x--x--x---x--x--x--x--x--x--x--x--|

A|--(9)-x--x--x--x--x--x--x---x--x--x--x--x--x--x--x--|

E|--(7)-x--x--x--x--x--x--x---x--x--x--x--x--x--x--x--|

 

e|-----------------------------------------------------|

B|-----------------------------------------------------|

G|-----------------------------------------------------|

D|--(5)-x--x--x--x--x--x--x---(2)-x--x--x--x--x--x--x--|

A|--(5)-x--x--x--x--x--x--x---(2)-x--x--x--x--x--x--x--|

E|--(3)-x--x--x--x--x--x--x---(0)-x--x--x--x--x--x--x--|

 

e|--------------------------------------------------------------------------------------------------------|

B|--------------------------------------------------------------------------------------------------------|

G|--------------------------------------------------------------------------------------------------------|

D|--(9)-x--x--x--x--x--x--x---x--x--x--x--x--x--x--x---(5)-x--x--x--x--x--x--x---(2)-x--x--x--x--x--x--x--|

A|--(9)-x--x--x--x--x--x--x---x--x--x--x--x--x--x--x---(5)-x--x--x--x--x--x--x---(2)-x--x--x--x--x--x--x--|

E|--(7)-x--x--x--x--x--x--x---x--x--x--x--x--x--x--x---(3)-x--x--x--x--x--x--x---(0)-x--x--x--x--x--x--x--|

 

  /~~~~~~~~~~~~~~~~~~~~~~~~~~~~~~~~~~~~~( REPEAT x2 / REPITE x2 )~~~~~~~~~~~~~~~~~~~~~~~~~~~~~~~~~~~~~\

e|-----------------------------------------------------------------------------------------------------|

B|-----------------------------------------------------------------------------------------------------|

G|-----------------------------------------------------------------------------------------------------|

D|--9--9--x--x--x--x--x--x---x--x--x--x--x--x--x--x---5--5--x--x--x--x--x--x---2--2--x--x--x--x--x--x--|

A|--9--9--x--x--x--x--x--x---x--x--x--x--x--x--x--x---5--5--x--x--x--x--x--x---2--2--x--x--x--x--x--x--|

E|--7--7--x--x--x--x--x--x---x--x--x--x--x--x--x--x---3--3--x--x--x--x--x--x---0--0--x--x--x--x--x--x--|

 

  /~~~~~~~~~~~~~~~~~~~~~~~~~~~~~~( REPEAT x2 / REPITE x2 )~~~~~~~~~~~~~~~~~~~~~~~~~~~~~~\

e|---------------------------------------------------------------------------------------|

B|---------------------------------------------------------------------------------------|

G|---------9--9--9----------9--9--9--9--9--9----------9--9--9----------9--9--9--9--9--9--|

D|--9--9-------------9--9----------------------5--5-------------7--7---------------------|

A|--9--9---7--7--7---9--9---7--7--7--7--7--7---5--5---7--7--7---7--7---7--7--7--7--7--7--|

E|--7--7-------------7--7----------------------3--3-------------5--5---------------------|

 

 

Pre-Chorus/Pre-Estribillo:

 

e|-----------------------------------------------------|

B|-----------------------------------------------------|

G|-----------------------------------------------------|

D|--(5)-x--x--x--x--x--x--x---(7)-x--x--x--x--x--x--x--|

A|--(5)-x--x--x--x--x--x--x---(7)-x--x--x--x--x--x--x--|

E|--(3)-x--x--x--x--x--x--x---(5)-x--x--x--x--x--x--x--|

 

 

Chorus/Estribillo:

 

e|-----------------------------------------------------------------|

B|-----------------------------------------------------------------|

G|----------------------------------7--7--7--7--7------------------|

D|--9--9--9--9--9---5--5--5--5--5---7--7--7--7--7---7--7--7--7--7--|

A|--9--9--9--9--9---5--5--5--5--5---5--5--5--5--5---7--7--7--7--7--|

E|--7--7--7--7--7---3--3--3--3--3-------------------5--5--5--5--5--|

 

e|--------------------------------------------------------------|

B|--------------------------------------------------------------|

G|----------------------------------7--7--7--7--7---------------|

D|--9--9--9--9--9---5--5--5--5--5---7--7--7--7--7---6--6--6--6--|

A|--9--9--9--9--9---5--5--5--5--5---5--5--5--5--5---7--7--7--7--|

E|--7--7--7--7--7---3--3--3--3--3-------------------4--4--4--4--|

 

e|-----------------------------------------------------------------|

B|-----------------------------------------------------------------|

G|----------------------------------7--7--7--7--7------------------|

D|--9--9--9--9--9---5--5--5--5--5---7--7--7--7--7---7--7--7--7--7--|

A|--9--9--9--9--9---5--5--5--5--5---5--5--5--5--5---7--7--7--7--7--|

E|--7--7--7--7--7---3--3--3--3--3-------------------5--5--5--5--5--|

 

e|-------------------------------------------------------------|

B|-------------------------------------------------------------|

G|-------------------------------------------------------------|

D|--5--5--5--5--5--5---5--5--5--5--5-----7--7--7--7--7--7---7--|

A|--5--5--5--5--5--5---5--5--5--5--5-----7--7--7--7--7--7---7--|

E|--3--3--3--3--3--3---3--3--3--3--3-----5--5--5--5--5--5---5--|

 

 

Interlude/Intermedio:

 

  /~~~~~~~~~~~~~~~~~~~~~~~~~~~~~~( REPEAT x2 / REPITE x2 )~~~~~~~~~~~~~~~~~~~~~~~~~~~~~~\

e|---------------------------------------------------------------------------------------|

B|---------------------------------------------------------------------------------------|

G|---------9--9--9----------9--9--9--9--9--9----------9--9--9----------9--9--9--9--9--9--|

D|--9--9-------------9--9----------------------5--5-------------7--7---------------------|

A|--9--9---7--7--7---9--9---7--7--7--7--7--7---5--5---7--7--7---7--7---7--7--7--7--7--7--|

E|--7--7-------------7--7----------------------3--3-------------5--5---------------------|

Re:make - Tron544
00:00 / 00:00
DONATE%20BUTTON%20(EN)_edited.png

Second Verse/Segunda Estrofa:

 

e|----------------------------------------------------------|

B|----------------------------------------------------------|

G|------9---7----------9---7----------9---7----------9---6--|

D|--9--------------9--------------7--------------7----------|

A|----------------------------------------------------------|

E|----------------------------------------------------------|

 

 

Pre-Chorus/Pre-Estribillo:

 

e|-----------------------------------------------------------------|

B|------------------7----------------------------------------------|

G|---------7--6--7-----7--6--7--7-------------------7--------------|

D|-----------------------------------------9--7--9-----9--7--9--9--|

A|-----------------------------------------------------------------|

E|--(7)-x---------------------------(3)-x--------------------------|

 

e|------------------------------------------------------------------------------------------------|

B|------------------------------------------------------------------------------------------------|

G|------------------------------------------------------------------------------------------------|

D|---------------------------------------------------------------------------4--x--x--4--x--x--4--|

A|---------5-------4--5---------7---------4---------5----------4---------4---4--x--x--4--x--x--4--|

E|--(0)-x-----(0)--------(0)-x-----(0)-x-----(0)-x------(2)-x-----(2)-x------2--x--x--2--x--x--2--|

 

 

Chorus/Estribillo:

 

e|-----------------------------------------------------------------|

B|-----------------------------------------------------------------|

G|----------------------------------7--7--7--7--7------------------|

D|--9--9--9--9--9---5--5--5--5--5---7--7--7--7--7---7--7--7--7--7--|

A|--9--9--9--9--9---5--5--5--5--5---5--5--5--5--5---7--7--7--7--7--|

E|--7--7--7--7--7---3--3--3--3--3-------------------5--5--5--5--5--|

 

e|--------------------------------------------------------------|

B|--------------------------------------------------------------|

G|----------------------------------7--7--7--7--7---------------|

D|--9--9--9--9--9---5--5--5--5--5---7--7--7--7--7---6--6--6--6--|

A|--9--9--9--9--9---5--5--5--5--5---5--5--5--5--5---7--7--7--7--|

E|--7--7--7--7--7---3--3--3--3--3-------------------4--4--4--4--|

 

e|-----------------------------------------------------------------|

B|-----------------------------------------------------------------|

G|----------------------------------7--7--7--7--7------------------|

D|--9--9--9--9--9---5--5--5--5--5---7--7--7--7--7---7--7--7--7--7--|

A|--9--9--9--9--9---5--5--5--5--5---5--5--5--5--5---7--7--7--7--7--|

E|--7--7--7--7--7---3--3--3--3--3-------------------5--5--5--5--5--|

 

e|-------------------------------------------------------------|

B|-------------------------------------------------------------|

G|-------------------------------------------------------------|

D|--5--5--5--5--5--5---5--5--5--5--5-----7--7--7--7--7--7---7--|

A|--5--5--5--5--5--5---5--5--5--5--5-----7--7--7--7--7--7---7--|

E|--3--3--3--3--3--3---3--3--3--3--3-----5--5--5--5--5--5---5--|

 

 

Bridge/Puente:

 

e|----------------------------------------|----------------------------------------|

B|----------------------------------------|----------------------------------------|

G|---------9--9---------------------------|---------9--9---------------------------|

D|--9--9---9--9---7------9--9---5--5---2--|--9--9---9--9---7------9--9---5--5---2--|

A|--9--9---7--7---7------9--9---5--5---2--|--9--9---7--7---7------9--9---5--5---2--|

E|--7--7----------5------7--7---3--3---0--|--7--7----------5------7--7---3--3---0--|

 

 

Solo:

 

e|--------------------------------------------------------------------------------------------------------|

B|--------------------------------------------------------------------------------------------------------|

G|--16--16--16--16--16--16--16---14--14---12--12---11--11---9--9--9--9--9--9--9--9--9--9--9---6--7--6-----|

D|-----------------------------------------------------------------------------------------------------7--|

A|--14--14--14--14--14--14--14---12--12---10--10---9---9----7--7--7--7--7--7--7--7--7--7--7---4--5--4-----|

E|-----------------------------------------------------------------------------------------------------5--|

 

e|----------------------------------------------------------------------------------------------------------|

B|----------------------------------------------------------------------------------------------------------|

G|--16--16--16--16--16--16--16--14--14--12--12--11--11--13--13--9--9--9--9--9--9--9--9--9--9--9--9--9--9--9-|

D|----------------------------------------------------------------------------------------------------------|

A|--14--14--14--14--14--14--14--12--12--10--10--9---9---11--11--7--7--7--7--7--7--7--7--7--7--7--7--7--7--7-|

E|----------------------------------------------------------------------------------------------------------|

 

e|-------------------------------------------------------------------------------------------------------|

B|-------------------------------------------------------------------------------------------------------|

G|--16--16--16--16--16--16--16---14--14---12--12---11--11---9--9--9--9--9--9--9--9---6--6---9--9---6--6--|

D|-------------------------------------------------------------------------------------------------------|

A|--14--14--14--14--14--14--14---12--12---10--10---9---9----7--7--7--7--7--7--7--7---4--4---7--7---4--4--|

E|-------------------------------------------------------------------------------------------------------|

 

e|---------------------------------------------------------7-h-9-h-10--|

B|----------------------------------------------5-h-7-h-8--------------|

G|-----------------------------------4-h-6-h-7-------------------------|

D|------------------------4-h-5-h-7------------------------------------|

A|-------------4-h-5-h-7-----------------------------------------------|

E|--3-h-5-h-7----------------------------------------------------------|

 

e|--17-p-14--------------14-h-17-p-14--------------14-h-17--|

B|-----------15------15----------------15------15-----------|

G|---------------14------------------------14---------------|

D|----------------------------------------------------------|

A|----------------------------------------------------------|

E|----------------------------------------------------------|

 

 

Last Chorus/Ultimo Estribillo:

 

e|-----------------------------------------------------------------|

B|-----------------------------------------------------------------|

G|----------------------------------7--7--7--7--7------------------|

D|--9--9--9--9--9---5--5--5--5--5---7--7--7--7--7---7--7--7--7--7--|

A|--9--9--9--9--9---5--5--5--5--5---5--5--5--5--5---7--7--7--7--7--|

E|--7--7--7--7--7---3--3--3--3--3-------------------5--5--5--5--5--|

 

e|--------------------------------------------------------------|

B|--------------------------------------------------------------|

G|----------------------------------7--7--7--7--7---------------|

D|--9--9--9--9--9---5--5--5--5--5---7--7--7--7--7---6--6--6--6--|

A|--9--9--9--9--9---5--5--5--5--5---5--5--5--5--5---7--7--7--7--|

E|--7--7--7--7--7---3--3--3--3--3-------------------4--4--4--4--|

 

e|-----------------------------------------------------------------|

B|-----------------------------------------------------------------|

G|----------------------------------7--7--7--7--7------------------|

D|--9--9--9--9--9---5--5--5--5--5---7--7--7--7--7---7--7--7--7--7--|

A|--9--9--9--9--9---5--5--5--5--5---5--5--5--5--5---7--7--7--7--7--|

E|--7--7--7--7--7---3--3--3--3--3-------------------5--5--5--5--5--|

 

e|----------------------------------------------------------------------|

B|----------------------------------------------------------------------|

G|----------------------------------------------------------------------|

D|--5--5--5--5--5--5---5--5--5--5--5-----7--7--7--7--7---6--6--6--6--6--|

A|--5--5--5--5--5--5---5--5--5--5--5-----7--7--7--7--7---7--7--7--7--7--|

E|--3--3--3--3--3--3---3--3--3--3--3-----5--5--5--5--5---4--4--4--4--4--|

 

e|-----------------------------------------------------------------|

B|-----------------------------------------------------------------|

G|----------------------------------7--7--7--7--7------------------|

D|--9--9--9--9--9---5--5--5--5--5---7--7--7--7--7---7--7--7--7--7--|

A|--9--9--9--9--9---5--5--5--5--5---5--5--5--5--5---7--7--7--7--7--|

E|--7--7--7--7--7---3--3--3--3--3-------------------5--5--5--5--5--|

 

e|--------------------------------------------------------------|

B|--------------------------------------------------------------|

G|----------------------------------7--7--7--7--7---------------|

D|--9--9--9--9--9---5--5--5--5--5---7--7--7--7--7---6--6--6--6--|

A|--9--9--9--9--9---5--5--5--5--5---5--5--5--5--5---7--7--7--7--|

E|--7--7--7--7--7---3--3--3--3--3-------------------4--4--4--4--|

 

e|-----------------------------------------------------------------|

B|-----------------------------------------------------------------|

G|----------------------------------7--7--7--7--7------------------|

D|--9--9--9--9--9---5--5--5--5--5---7--7--7--7--7---7--7--7--7--7--|

A|--9--9--9--9--9---5--5--5--5--5---5--5--5--5--5---7--7--7--7--7--|

E|--7--7--7--7--7---3--3--3--3--3-------------------5--5--5--5--5--|

 

e|-------------------------------------------------------------|

B|-------------------------------------------------------------|

G|-------------------------------------------------------------|

D|--5--5--5--5--5--5---5--5--5--5--5-----7--7--7--7--7--7---7--|

A|--5--5--5--5--5--5---5--5--5--5--5-----7--7--7--7--7--7---7--|

E|--3--3--3--3--3--3---3--3--3--3--3-----5--5--5--5--5--5---5--|

 

 

Outro:

 

e|------------------------------------------------------------------------------------------|

B|------------------------------------------------------------------------------------------|

G|---------9--9--9----------9--9--9--9--9--9----------9--9--9----------9--9--9--9--9--9--9--|

D|--9--9-------------9--9----------------------9--9-------------9--9------------------------|

A|--9--9---7--7--7---9--9---7--7--7--7--7--7---9--9---7--7--7---9--9---7--7--7--7--7--7--7--|

E|--7--7-------------7--7----------------------7--7-------------7--7------------------------|

©2015 by Fefe - Tron544

Sigueme en:

  • YouTube - White Circle
  • Facebook - White Circle
  • Instagram - White Circle
  • Twitter - White Circle
This site was designed with the
.com
website builder. Create your website today.
Start Now