REDO

RE:ZERO KARA HAJIMERU ISEKAI SEKAITSU

TABS ~ By Fefe (Tron544)

 

Intro: x4
 

GUITAR (Left):

e|---------13--13-13-13--------13--13-13-13--|
B|--13-13---------------13-13----------------|
G|---------10--10-10-10--------10--10-10-10--|
D|--10-10---------------10-10----------------|
A|-------------------------------------------|
E|-------------------------------------------|

GUITAR (Right):

e|-------------------------------------------|
B|-------------------------------------------|
G|---------10--10-10-10--------10--10-10-10--|
D|--10-10---------------10-10----------------|
A|---------8---8--8--8---------8---8--8--8---|
E|--8--8----------------8--8-----------------|

 


Verse/Estrofa:

GUITAR (Vocals):

e|-----------------------------------------------|
B|--8----6----5----------6-9---------------------|
G|-----------------5-5-8--------8----5---5-5--8--|
D|-----------------------------------------------|
A|-----------------------------------------------|
E|-----------------------------------------------|

GUITAR (Left):

e|-----------------------------------------------------------------------|
B|---------13--13-13-13--------13--13-13-13------9--9-9-9------9--9-9-9--|
G|-----------------------------------------------------------------------|
D|--10-10---------------10-10---------------6-6-----------6-6------------|
A|-----------------------------------------------------------------------|
E|-----------------------------------------------------------------------|

GUITAR (Right):

e|-------------------------------------------------------------------|
B|-------------------------------------------------------------------|
G|-------------------------------------------------------------------|
D|-------10--10-10-10------10--10-10-10------6--6-6-6------6--6-6-6--|
A|-------------------------------------------------------------------|
E|--8-8---------------8-8---------------4-4-----------4-4------------|

GUITAR (Vocals):

e|--------------------------------------------------|
B|---8-8-6-8--8-6-8-6-8-6-8--8--9----8----6----9----|
G|--------------------------------------------------|
D|--------------------------------------------------|
A|--------------------------------------------------|
E|--------------------------------------------------|

GUITAR (Left):

e|-------11--11-11-11------11--11-11-11------9--9-9-9------9--9-9-9--|
B|-------------------------------------------------------------------|
G|--8-8---------------8-8---------------6-6-----------6-6------------|
D|-------------------------------------------------------------------|
A|-------------------------------------------------------------------|
E|-------------------------------------------------------------------|

GUITAR (Right):

e|-----------------------------------------------------------|
B|-----------------------------------------------------------|
G|-------8--8-8-8------8--8-8-8------6--6-6-6------6--6-6-6--|
D|-----------------------------------------------------------|
A|--6-6-----------6-6-----------4-4-----------4-4------------|
E|-----------------------------------------------------------|

GUITAR (Vocals):

e|----------------------------------------------|
B|--8----6----5----------6-9--------------------|
G|-----------------5-5-8--------8----5----5--8--|
D|----------------------------------------------|
A|----------------------------------------------|
E|----------------------------------------------|

GUITAR (Left):

e|-----------------------------------------------------------------------|
B|---------13--13-13-13--------13--13-13-13------9--9-9-9------9--9-9-9--|
G|-----------------------------------------------------------------------|
D|--10-10---------------10-10---------------6-6-----------6-6------------|
A|-----------------------------------------------------------------------|
E|-----------------------------------------------------------------------|

GUITAR (Right):

e|-------------------------------------------------------------------|
B|-------------------------------------------------------------------|
G|-------------------------------------------------------------------|
D|-------10--10-10-10------10--10-10-10------6--6-6-6------6--6-6-6--|
A|-------------------------------------------------------------------|
E|--8-8---------------8-8---------------4-4-----------4-4------------|

GUITAR (Vocals):

e|------------------------------------------------------|
B|---8-8-6-8--8-6-8-6-8-6-8--8--9----8----6--9/11--9----|
G|------------------------------------------------------|
D|------------------------------------------------------|
A|------------------------------------------------------|
E|------------------------------------------------------|

GUITAR (Left):

e|-------11--11-11-11------11--11-11-11------9--9-9-9------9--9-9-9--|
B|-------------------------------------------------------------------|
G|--8-8---------------8-8---------------6-6-----------6-6------------|
D|-------------------------------------------------------------------|
A|-------------------------------------------------------------------|
E|-------------------------------------------------------------------|

GUITAR (Right):

e|-----------------------------------------------------------|
B|-----------------------------------------------------------|
G|-------8--8-8-8------8--8-8-8------6--6-6-6------6--6-6-6--|
D|-----------------------------------------------------------|
A|--6-6-----------6-6-----------4-4-----------4-4------------|
E|-----------------------------------------------------------|

 


Pre-Chorus/Pre-Estribillo:

GUITAR (Vocals):

e|--------------------------------------------------------|
B|--8--6-8----------6-6-/8----8--6-8-------9--8-----------|
G|-----------8-8-8--------------------8--8------8--8-/10--|
D|--------------------------------------------------------|
A|--------------------------------------------------------|
E|--------------------------------------------------------|

GUITAR (Left):

e|--------6------6------6------------------------------------|
B|------4----4------4------4-----------6------6------6-------|
G|----5--------5------5------5-------7----7------7------7----|
D|--6---------------------------6-/8--------8------8------8--|
A|-----------------------------------------------------------|
E|-----------------------------------------------------------|

GUITAR (Right):

e|--------4------4------6--p4-----------6-------6-------8--p6----|
B|------4----4------4---------5-------------------------------6--|
G|----5--------5------5---------------7----8-p7----8-p7----------|
D|--6----------------------------6-/8----------------------------|
A|---------------------------------------------------------------|
E|---------------------------------------------------------------|

GUITAR (Vocals):

e|----8--------------------------8--------------------|
B|-------11--------8-------8--------11--8--10----9----|
G|-----------8-10-----8-10----------------------------|
D|----------------------------------------------------|
A|----------------------------------------------------|
E|----------------------------------------------------|

GUITAR (Left):

e|-------------------------------------------------------------|
B|-------4--4-4-4------4--4-4-4------4--4-4-4------------------|
G|--------------------------------------------7-7-7-7-6-6-6-6--|
D|-------------------------------------------------------------|
A|--3-3-----------3-3-----------3-3-----------5-5-5-5-4-4-4-4--|
E|-------------------------------------------------------------|

GUITAR (Right):

e|-------------------------------------------------------------|
B|-------4--4-4-4------4--4-4-4------4--4-4-4------------------|
G|--------------------------------------------7-7-7-7-6-6-6-6--|
D|-------------------------------------------------------------|
A|--3-3-----------3-3-----------3-3-----------5-5-5-5-4-4-4-4--|
E|-------------------------------------------------------------|

GUITAR (Vocals):

e|------------------------8--10--10/11------11--10----11/13----|
B|--8-----8-------9/11-----------------------------------------|
G|-----10-----8-8----------------------------------------------|
D|-------------------------------------------------------------|
A|-------------------------------------------------------------|
E|-------------------------------------------------------------|

GUITAR (Left):

e|------------------------1---------------1-------------4----|
B|--------1-----------4-----4---4-----4-----4---4----6-------|
G|------1----1----------3-----3---------3-----3--------------|
D|----3--------3----1---------------1-------------5----------|
A|-----------------------------------------------------------|
E|--1-------------3---------------4--------------------------|

GUITAR (Right):

e|----------------------------8--------------------8-----------------16----|
B|---------9-------------11-----11---11-------11-----11---11-----15--------|
G|-------8----8-------------8------8-------------8------8----16------------|
D|----10--------10-----8-------------------10------------------------------|
A|--8---------------10------------------11---------------------------------|
E|-------------------------------------------------------------------------|

GUITAR (Vocals):

e|----8----------------------------------------------------------------------------11-----------|
B|-------11--------8--8-9-11--11-13--11--13--11--13/15----14-----13--13-13--13--13----11/13-----|
G|-----------8-10-------------------------------------------------------------------------------|
D|----------------------------------------------------------------------------------------------|
A|----------------------------------------------------------------------------------------------|
E|----------------------------------------------------------------------------------------------|

GUITAR (Left):

e|--------------------------------------------------------------------------------------------|
B|-------4--4-4-4------4--4-4-4------4--4-4-4-------------------------------------------------|
G|--------------------------------------------7-7-7-7-6-6-6-6-5-5--8-8--10-10--11-11--12--12--|
D|------------------------------------------------------------5-5--8-8--10-10--11-11--12--12--|
A|--3-3-----------3-3-----------3-3-----------5-5-5-5-4-4-4-4-3-3--6-6--8--8---9--9---10--10--|
E|--------------------------------------------------------------------------------------------|

GUITAR (Right):

e|--------------------------------------------------------------------------------------------|
B|-------4--4-4-4------4--4-4-4------4--4-4-4-------------------------------------------------|
G|--------------------------------------------7-7-7-7-6-6-6-6-5-5--8-8--10-10--11-11--12--12--|
D|------------------------------------------------------------5-5--8-8--10-10--11-11--12--12--|
A|--3-3-----------3-3-----------3-3-----------5-5-5-5-4-4-4-4-3-3--6-6--8--8---9--9---10--10--|
E|--------------------------------------------------------------------------------------------|

Redo - Tron544
00:00 / 00:00
DONATE%20BUTTON%20(EN)_edited.png

Chorus/Estribillo:

GUITAR (Vocals):

e|----------------------------------------------------------------------|
B|--13--11-----13--11---------------------------------------------------|
G|---------12----------12--10--12---10-8-10-8-10-8-10-8-10-8--10/12-----|
D|----------------------------------------------------------------------|
A|----------------------------------------------------------------------|
E|----------------------------------------------------------------------|

GUITAR (Left):

e|-------------------------------------------------------------|
B|-------------------------------------------------------------|
G|--5--5-5-5-5--8--8-8-8-8-8-8-----------------8--8-8-8-8-8-8--|
D|--5--5-5-5-5--8--8-8-8-8-8-8--3--3-3-3-3-3-3-8--8-8-8-8-8-8--|
A|--3--3-3-3-3--6--6-6-6-6-6-6--3--3-3-3-3-3-3-6--6-6-6-6-6-6--|
E|------------------------------1--1-1-1-1-1-1-----------------|

GUITAR (Right):

e|--8-8-8-8-8-8-8-8-/11--11-11-11-11-11-11-11-/13--13-13-13-13-13-13-13-11-11-11-11-11-11-11-11--|
B|--8-8-8-8-8-8-8-8-/11--11-11-11-11-11-11-11-/13--13-13-13-13-13-13-13-11-11-11-11-11-11-11-11--|
G|-----------------------------------------------------------------------------------------------|
D|-----------------------------------------------------------------------------------------------|
A|-----------------------------------------------------------------------------------------------|
E|-----------------------------------------------------------------------------------------------|

GUITAR (Vocals):

e|----8--8--10-10/11-----10--------------------------10-11p10---|
B|---------------------------11-11/13----------11-13------------|
G|--------------------------------------------------------------|
D|--------------------------------------------------------------|
A|--------------------------------------------------------------|
E|--------------------------------------------------------------|

GUITAR (Left):

e|-----------------------------------------------------------|
B|-----------------------------------------------------------|
G|-----------------------------------------------------------|
D|--3-3--3--3--5--5-5-5-5-5-5-5-6-6--6--6--8--8-8-8-8-8-8-8--|
A|--3-3--3--3--5--5-5-5-5-5-5-5-6-6--6--6--8--8-8-8-8-8-8-8--|
E|--1-1--1--1--3--3-3-3-3-3-3-3-4-4--4--4--6--6-6-6-6-6-6-6--|

GUITAR (Right):

e|----------------------------------------------------------|
B|------------------------------9-----9----9----8-----------|
G|------------------------------11b---11b--11b--10b---------|
D|--3-3--3--3--5--5-5-5-5-5-5-5-----------------------------|
A|--3-3--3--3--5--5-5-5-5-5-5-5-----------------------------|
E|--1-1--1--1--3--3-3-3-3-3-3-3-----------------------------|

GUITAR (Vocals):

e|------------------------------------------------------8---10---11--|
B|--13--11-----13--11-------------------------------8-9--------------|
G|---------12----------12--10--12---10-8-10-8-10-10------------------|
D|-------------------------------------------------------------------|
A|-------------------------------------------------------------------|
E|-------------------------------------------------------------------|

GUITAR (Left):

e|---------------------------------------------------------------|
B|---------------------------------------------------------------|
G|--5--5-5-5-5-5-5-8--8-8-8-8-8-8----------------8--8-8-8-8-8-8--|
D|--5--5-5-5-5-5-5-8--8-8-8-8-8-8-3--3-3-3-3-3-3-8--8-8-8-8-8-8--|
A|--3--3-3-3-3-3-3-6--6-6-6-6-6-6-3--3-3-3-3-3-3-6--6-6-6-6-6-6--|
E|--------------------------------1--1-1-1-1-1-1-----------------|

GUITAR (Right):

e|--15--------16--------18--------20b--------|
B|-------------------------------------------|
G|-------------------------------------------|
D|-------------------------------------------|
A|-------------------------------------------|
E|-------------------------------------------|

GUITAR (Vocals):

e|---------------------------------------------------|
B|--------------------------9-8/9--------9/11--------|
G|--8/10--------10/12--------------------------------|
D|---------------------------------------------------|
A|---------------------------------------------------|
E|---------------------------------------------------|

GUITAR (Left):

e|------------------------------------------------------------|
B|------------------------------------------------------------|
G|------------------------------------------------------------|
D|--(3)-x-x--3----(5)-x-x--5----(6)-x-x--6----8--8-8-8-8-8-8--|
A|--(3)-x-x--3----(5)-x-x--5----(6)-x-x--6----8--8-8-8-8-8-8--|
E|--(1)-x-x--1----(3)-x-x--3----(4)-x-x--4----6--6-6-6-6-6-6--|

GUITAR (Right):

e|------------------------------------------------------------|
B|------------------------------------------------------------|
G|------------------------------------------------------------|
D|--(3)-x-x--3----(5)-x-x--5----(6)-x-x--6----8--8-8-8-8-8-8--|
A|--(3)-x-x--3----(5)-x-x--5----(6)-x-x--6----8--8-8-8-8-8-8--|
E|--(1)-x-x--1----(3)-x-x--3----(4)-x-x--4----6--6-6-6-6-6-6--|

GUITAR (Vocals):

e|---------------------------------------------11--10-------------------|
B|--11/13--------13/15-------13-11/13------------------11--11/13--------|
G|----------------------------------------------------------------------|
D|----------------------------------------------------------------------|
A|----------------------------------------------------------------------|
E|----------------------------------------------------------------------|

GUITAR (Left):

e|-------------------------------------------------------------------|
B|-------------------------------------------------------------------|
G|-------------------------------------------------------------------|
D|--(3)-x-x--3----(5)-x-x--5----(6)-x-x--6----8--8-8-8-8-8-8---------|
A|--(3)-x-x--3----(5)-x-x--5----(6)-x-x--6----8--8-8-8-8-8-8---------|
E|--(1)-x-x--1----(3)-x-x--3----(4)-x-x--4----6--6-6-6-6-6-6---------|

GUITAR (Right):

e|-------------------------------------------------------------------|
B|-------------------------------------------------------------------|
G|-------------------------------------------------------------------|
D|--(3)-x-x--3----(5)-x-x--5----(6)-x-x--6----8--8-8-8-8-8-8---------|
A|--(3)-x-x--3----(5)-x-x--5----(6)-x-x--6----8--8-8-8-8-8-8---------|
E|--(1)-x-x--1----(3)-x-x--3----(4)-x-x--4----6--6-6-6-6-6-6---------|

GUITAR (Vocals):

e|-----------------------------------------------------------------|
B|------------------------------8--8--9-9-8-9--8-9-9-8-9-9-8-11----|
G|--10-10-8-10--8-10-10-8-10--8------------------------------------|
D|-----------------------------------------------------------------|
A|-----------------------------------------------------------------|
E|-----------------------------------------------------------------|

GUITAR (Left):

e|-------------------------------------------------------------|
B|-------------------------------------------------------------|
G|-------------------------------------------------------------|
D|--3-x-x-3-x-x-3-x-x-3-x-x-3--3--5-x-x-5-x-x-5-x-x-5-x-x-5----|
A|--3-x-x-3-x-x-3-x-x-3-x-x-3--3--5-x-x-5-x-x-5-x-x-5-x-x-5----|
E|--1-x-x-1-x-x-1-x-x-1-x-x-1--1--3-x-x-3-x-x-3-x-x-3-x-x-3----|

GUITAR (Right):

e|-------------------------------------------------------------|
B|--6-x-x-6-x-x-6-x-x-6-x-x-6--6--8-x-x-8-x-x-8-x-x-8-x-x-8----|
G|--5-x-x-5-x-x-5-x-x-5-x-x-5--5--7-x-x-7-x-x-7-x-x-7-x-x-7----|
D|-------------------------------------------------------------|
A|-------------------------------------------------------------|
E|-------------------------------------------------------------|

GUITAR (Vocals):

e|----------------------------------------|
B|--11----11/13----11----11/13------------|
G|----------------------------------------|
D|----------------------------------------|
A|----------------------------------------|
E|----------------------------------------|

GUITAR (Left):

e|----------------------------------13--13-13-13--|
B|---------------------------13-13----------------|
G|----------------------------------10--10-10-10--|
D|--6--------(8)-x-x-x-8-8---10-10----------------|
A|--6--------(8)-x-x-x-8-8------------------------|
E|--4--------(6)-x-x-x-6-6------------------------|

GUITAR (Right):

e|--4--------18-18-18-18-18-18------------------------|
B|--4--------18-18-18-18-18-18------------------------|
G|--5-----------------------------------10--10-10-10--|
D|--6----------------------------10-10----------------|
A|--------------------------------------8---8--8--8---|
E|-------------------------------8--8-----------------|

©2015 by Fefe - Tron544

Sigueme en:

  • YouTube - White Circle
  • Facebook - White Circle
  • Instagram - White Circle
  • Twitter - White Circle
This site was designed with the
.com
website builder. Create your website today.
Start Now