RED SWAN

ATTACK ON TITAN

TABS ~ By Fefe (Tron544)

 

Intro:

GUITAR (Rhythm):

e|--1--------5--------6--------6--|
B|--1--------5--------6--------6--|
G|--2--------5--------7--------6--|
D|--3--------7--------8--------8--|
A|--3--------7--------8--------8--|
E|--1--------5--------6--------6--|

 


Verse/Estrofa:

GUITAR (Vocals):

e|--------|------------------------------------------|
B|--------|------------------------------------------|
G|--5-----|------------------------------------------|
D|-----8--|--7-/-8---7-7------7-7-5---5-/-7-----7-7--|
A|--------|-------------------------8----------------|
E|--------|------------------------------------------|

GUITAR (Rhythm):

e|--1--------5--|
B|--1--------5--|
G|--2--------5--|
D|--3--------7--|
A|--3--------7--|
E|--1--------5--|

GUITAR (Vocals):

e|--------------------------------------------------|
B|--------------------------------------------------|
G|--------------------------------------------------|
D|--7-h-8---7-\-5-----7--7-h8---7-\-5--------5-h-7--|
A|---------------------------------------8-8--------|
E|--------------------------------------------------|

e|-------------------------------------------|
B|-------------------------------------------|
G|-------------------------------------------|
D|--5-/-7------7-7-8-8-/-10-\-7--7------7-7--|
A|-------------------------------------------|
E|-------------------------------------------|

GUITAR (Rhythm):

e|--1--------5--|
B|--1--------5--|
G|--2--------5--|
D|--3--------7--|
A|--3--------7--|
E|--1--------5--|

GUITAR (Vocals):

e|-----------------------------------------------------------|
B|-----------------------------------------------------------|
G|--------------------------------------10--10-/-12-\-10-10--|
D|--7-h-8---7-\-5------7-7-7-h-8------8----------------------|
A|-----------------------------------------------------------|
E|-----------------------------------------------------------|

GUITAR (Rhythm):

e|--6--------6--|
B|--6--------6--|
G|--7--------6--|
D|--8--------8--|
A|--8--------8--|
E|--6--------6--|

 


Pre-Chorus/Pre-Estribillo:

GUITAR (Rhythm):

e|--1--------5--------6--------6--|
B|--1--------5--------6--------6--|
G|--2--------5--------7--------6--|
D|--3--------7--------8--------8--|
A|--3--------7--------8--------8--|
E|--1--------5--------6--------6--|

Red Swan - Tron544
00:00 / 00:00
DONATE%20BUTTON%20(EN)_edited.png

Chorus/Estribillo:

GUITAR (Vocals):

e|---------------|-----------------------------------------------------|
B|---------------|-----------------------------------------------------|
G|--10-10-10-12--|--10-/-12---10------10-10-10-9--7-7-/-9------10--12--|
D|---------------|-----------------------------------------------------|
A|---------------|-----------------------------------------------------|
E|---------------|-----------------------------------------------------|

GUITAR (Harmony):

e|-------------|------------------------------------------------------|
B|-------------|------------------------------------------------------|
G|-------------|------------------------------------------------------|
D|--8-8-10-12--|--10-/-12---10------10-10-10-7--7-7-/-10------10--12--|
A|-------------|------------------------------------------------------|
E|-------------|------------------------------------------------------|

GUITAR (Rhythm):

e|--1--------5--|
B|--1--------5--|
G|--2--------5--|
D|--3--------7--|
A|--3--------7--|
E|--1--------5--|

GUITAR (Vocals):

e|--------------------------------------------------------|
B|--------------------------------------------------------|
G|--10-/-12---10-10------7-7-9-10-9-h-10------10-12---12--|
D|--------------------------------------------------------|
A|--------------------------------------------------------|
E|--------------------------------------------------------|

GUITAR (Harmony):

e|----------------------------------------------------|
B|----------------------------------------------------|
G|----------------------------------------------------|
D|--10-/-12---12-12------8-8-10-12-11------8-10---10--|
A|----------------------------------------------------|
E|----------------------------------------------------|

GUITAR (Rhythm):

e|--6--------6--|
B|--6--------6--|
G|--7--------6--|
D|--8--------8--|
A|--8--------8--|
E|--6--------6--|

GUITAR (Vocals):

e|------------------------------------------------------|
B|------------------------------------------------------|
G|--12---14-14------14-14-14-12--10-10-/-14------14-14--|
D|------------------------------------------------------|
A|------------------------------------------------------|
E|------------------------------------------------------|

GUITAR (Harmony):

e|------------------------------------------------|
B|------------------------------------------------|
G|-------10-10------10-10-10-9--7-7-/-9------9-9--|
D|--10--------------------------------------------|
A|------------------------------------------------|
E|------------------------------------------------|

GUITAR (Rhythm):

e|--1--------5--|
B|--1--------5--|
G|--2--------5--|
D|--3--------7--|
A|--3--------7--|
E|--1--------5--|

GUITAR (Vocals):

e|-----------------------------------------------------------------------|
B|-----------------------------------------------------------------------|
G|--14-/-15---14-12------14-14-14-/-15---14-12------10--12--10-/-12--10--|
D|-----------------------------------------------------------------------|
A|-----------------------------------------------------------------------|
E|-----------------------------------------------------------------------|

GUITAR (Harmony):

e|---------------------------------------------------------------|
B|---------------------------------------------------------------|
G|-9-/-10---9-7------9-9-9-/-10---9------------------------------|
D|----------------------------------10------10--12--10-/-12--10--|
A|---------------------------------------------------------------|
E|---------------------------------------------------------------|

GUITAR (Rhythm):

e|--6--------6--|
B|--6--------6--|
G|--7--------6--|
D|--8--------8--|
A|--8--------8--|
E|--6--------6--|

©2015 by Fefe - Tron544

Sigueme en:

  • YouTube - White Circle
  • Facebook - White Circle
  • Instagram - White Circle
  • Twitter - White Circle
This site was designed with the
.com
website builder. Create your website today.
Start Now