REALIZE

RE:ZERO KARA HAJIMERU ISEKAI SEKAITSU

TABS ~ By Fefe (Tron544)

 

Intro:

GUITAR (Rhythm):

   /~~~~~~~~~~( REPEAT x3 / REPITE x3 )~~~~~~~~~\
C#|--------16p15-----16p15----16p15----16p15-----|
G#|---------------16-------16-------16-------16--|
 E|-----17---------------------------------------|
 B|--15------------------------------------------|
F#|----------------------------------------------|
 B|----------------------------------------------|

C#|--------------------------------------|
G#|--------------------------------------|
 E|--6----------------8------------------|
 B|--6----------------8------------------|
F#|--4----------------6------------------|
 B|--------------------------------------|

C#|-------------------------------------------------8------|

G#|-------------------------------------------------11b----|

 E|--10--x-x-x-x-x-x-x-x-x-x-x-x-x-x-----------------------|

 B|--10--x-x-x-x-x-x-x-x-x-x-x-x-x-x-3-3--3--3--3----------|

F#|--8---x-x-x-x-x-x-x-x-x-x-x-x-x-x-3-3--3--3--3----------|

 B|----------------------------------3-3--3--3--3----------|


Verse/Estrofa:

GUITAR (Vocals):

e|-------------------------------------------------------------------------------------------------------|
B|-------------------------------------------------------------------------------------------------------|
G|-------10--10-9/10---10--9--10-9--7-7-------5----5h7----5----5-----5--7-5---7-7h9----5----9/10----9----|
D|----7------------------------------------7----------------------7--------------------------------------|
A|-------------------------------------------------------------------------------------------------------|
E|-------------------------------------------------------------------------------------------------------|

e|---------------------------------------------------------------|
B|---------------------------------------------------------------|
G|-------10-10--9/10---9--7-9---10/12---10-10-10--9-10-------10--|
D|----7--------------------------------------------------10------|
A|---------------------------------------------------------------|
E|---------------------------------------------------------------|

GUITAR (Rhythm):

C#|--------------------------------------------------------------|
G#|--------------------------------------------------------------|
 E|--------------------------------(6)-x-6--x-x-6--x-x-6--x-x-6--|
 B|--(3)-x-3--x-x-3--x-x-3--x-x-3--(6)-x-6--x-x-6--x-x-6--x-x-6--|
F#|--(3)-x-3--x-x-3--x-x-3--x-x-3--(4)-x-4--x-x-4--x-x-4--x-x-4--|
 B|--(3)-x-3--x-x-3--x-x-3--x-x-3--------------------------------|

GUITAR (Vocals):

e|-----------------------------------------------------------------------|
B|---------------------------------------10-10--10--11--10---10----------|
G|---12-10-12--12--12-10-12--------10-12-------------------------12--10--|
D|------------------------------10---------------------------------------|
A|-----------------------------------------------------------------------|
E|-----------------------------------------------------------------------|

GUITAR (Rhythm):

C#|---------------------------------------------------------------|
G#|---------------------------------------------------------------|
 E|---------------------------------------------------------------|
 B|--(6)-x-6--x-x-6--x-x-6--x-x-6--(5)-x-5--x-x-5-8--8-8-8-8-8-8--|
F#|--(6)-x-6--x-x-6--x-x-6--x-x-6--(5)-x-5--x-x-5-8--8-8-8-8-8-8--|
 B|--(6)-x-6--x-x-6--x-x-6--x-x-6--(5)-x-5--x-x-5-8--8-8-8-8-8-8--|

 


Pre-Chorus/Pre-Estribillo:

GUITAR (Vocals):

e|-----------------------------------------------------------------------------|
B|------------------13--13-13--13--11/13---11--10--11-10-----------------------|
G|--9-/-10-------------------------------------------------12--10--12-12-/-14--|
D|------------10-10------------------------------------------------------------|
A|-----------------------------------------------------------------------------|
E|-----------------------------------------------------------------------------|

GUITAR (Rhythm):

C#|---------------------------------------------------------------------------------------|
G#|---------------------------------------------------------------------------------------|
 E|--6----------------3-------------------------------------------------------------------|
 B|--6----------------3----------------(3)--x--3---3-x--x--3---3-x--x-3---3-(1)--x--x--x--|
F#|--4----------------1----------------(3)--x--3---3-x--x--3---3-x--x-3---3-(1)--x--x--x--|
 B|------------------------------------(3)--x--3---3-x--x--3---3-x--x-3---3-(1)--x--x--x--|

GUITAR (Vocals):

e|----------|---------------------------------------10--13--12----------|
B|--10------|-----------------------------10----13--------------13--10--|
G|------10--|------------10--9---10---12--------------------------------|
D|----------|--12----12-------------------------------------------------|
A|----------|-----------------------------------------------------------|
E|----------|-----------------------------------------------------------|

e|----------------------------------------------------------|
B|--------------------10----11-----------10-11------13--11--|
G|--13----------12-----------------12-12--------------------|
D|--------13------------------------------------13----------|
A|----------------------------------------------------------|
E|----------------------------------------------------------|

GUITAR (Rhythm):

C#|----------------------------------------------------------------|
G#|----------------------------------------------------------------|
 E|---------------------------------9--x-x-x-x-x-x-6--x-x-x-x-6-x--|
 B|--4--x-x-x-x-x-x-x-x-x-x-x-x-x-x-8--x-x-x-x-x-x-5--x-x-x-x-5-x--|
F#|--4--x-x-x-x-x-x-x-x-x-x-x-x-x-x-7--x-x-x-x-x-x-4--x-x-x-x-4-x--|
 B|--4--x-x-x-x-x-x-x-x-x-x-x-x-x-x--------------------------------|

GUITAR (Vocals):

e|-------12---10---9---7/9--10--9--------|
B|--10-----------------------------------|
G|---------------------------------------|
D|---------------------------------------|
A|---------------------------------------|
E|---------------------------------------|

GUITAR (Rhythm):

C#|--------------------------------------------------|
G#|---------------------------------------------6-8--|
 E|--5-x-x-5-x-x-5-x-x-5-x-x-5-x-5-x-5------5-6------|
 B|--5-x-x-5-x-x-5-x-x-5-x-x-5-x-5-x-5--5-6----------|
F#|--3-x-x-3-x-x-3-x-x-3-x-x-3-x-3-x-3---------------|
 B|--------------------------------------------------|

Realize - Tron544
00:00 / 00:00
DONATE%20BUTTON%20(EN)_edited.png

Chorus/Estribillo:

GUITAR (Vocals):

e|--9---10--|------9--------------------------------------------------------|
B|----------|-----------10---------------------------10-10-10-10-10-10--10--|
G|----------|-----------------11---9--11-11---------------------------------|
D|----------|----------------------------------12-12------------------------|
A|----------|---------------------------------------------------------------|
E|----------|---------------------------------------------------------------|

GUITAR (Rhythm):

C#|-----|------------------------------------------------------------|
G#|-----|------------------------------------------------------------|
 E|--7--|---7-7-7--7-7-7-7--7-7--7-7-----------------------------10--|
 B|--7--|---7-7-7--7-7-7-7--7-7--7-7-8--8-8-8--8-8-8-8--8-8--8-8-10--|
F#|--5--|---5-5-5--5-5-5-5--5-5--5-5-8--8-8-8--8-8-8-8--8-8--8-8-8---|
 B|-----|----------------------------8--8-8-8--8-8-8-8--8-8--8-8-----|

GUITAR (Vocals):

e|-------------------------------------9-9---10--9--------9--10--|
B|------------------12-12--12--12--12------------------12--------|
G|---11-11-------------------------------------------------------|
D|------------12-12----------------------------------------------|
A|---------------------------------------------------------------|
E|---------------------------------------------------------------|

GUITAR (Rhythm):

C#|----------------------------------------------------------------------|
G#|----------------------------------------------------------------------|
 E|---10-10-10--10-10-10-10--10-10--10-10-5--5-5--5-5-5-6--6-6--6-6-6-7--|
 B|---10-10-10--10-10-10-10--10-10--10-10-5--5-5--5-5-5-7--7-7--7-7-7-7--|
F#|---8--8--8---8--8--8--8---8--8---8--8--3--3-3--3-3-3-4--4-4--4-4-4-5--|
 B|----------------------------------------------------------------------|

GUITAR (Vocals):

e|------9----10----10/12---10------------------------------|
B|-----------------------------12-12--------10-------------|
G|----------------------------------------------11--9------|
D|--------------------------------------12-------------12--|
A|---------------------------------------------------------|
E|---------------------------------------------------------|

GUITAR (Rhythm):

C#|-----------------------------------------------------------|
G#|-----------------------------------------------------------|
 E|---7-7--7-7-7-7-7--7-7--7-7-7------------------------------|
 B|---7-7--7-7-7-7-7--7-7--7-7-7-8--8-8--8-8-8-8--8-8--8-8-8--|
F#|---5-5--5-5-5-5-5--5-5--5-5-5-8--8-8--8-8-8-8--8-8--8-8-8--|
 B|------------------------------8--8-8--8-8-8-8--8-8--8-8-8--|

GUITAR (Vocals):

e|------------------------------------------------------|
B|------------------------------10----12---15---14------|
G|--9--11-11---9--11-11---9--11-------------------------|
D|------------------------------------------------------|
A|------------------------------------------------------|
E|------------------------------------------------------|

GUITAR (Rhythm):

C#|-----------------------------------------------------------------------|
G#|-----------------------------------------------------------------------|
 E|--10--10-10--10-10-10-10--10-10--10-10-10-5--5-5--5-5-5-6--6-6--6-6-6--|
 B|--10--10-10--10-10-10-10--10-10--10-10-10-5--5-5--5-5-5-7--7-7--7-7-7--|
F#|--8---8--8---8--8--8--8---8--8---8--8--8--3--3-3--3-3-3-4--4-4--4-4-4--|
 B|-----------------------------------------------------------------------|

GUITAR (Vocals):

e|----------------------------------------------------------------------|
B|--14/15--------------12--15--14---12--\10-10------10----10-12--10/12--|
G|----------------11-----------------------------11----11---------------|
D|----------------------------------------------------------------------|
A|----------------------------------------------------------------------|
E|----------------------------------------------------------------------|

GUITAR (Rhythm):

C#|---------------------------------------------------------|
G#|---------------------------------------------------------|
 E|--3-x-x-3-x-x-3-x-x-3-x-x-3-x-3-x-5-x-x-5-x-x-5----------|
 B|--3-x-x-3-x-x-3-x-x-3-x-x-3-x-3-x-5-x-x-5-x-x-5----------|
F#|--1-x-x-1-x-x-1-x-x-1-x-x-1-x-1-x-3-x-x-3-x-x-3----------|
 B|---------------------------------------------------------|

 


Outro:

GUITAR (Rhythm):

C#|-------------------------------------------------------------------|
G#|-------------------------------------------------------------------|
 E|-------------------------------------------------------------------|
 B|-------------------------------------------------------------------|
F#|-------------------------5-5-3-5-----------------------------------|
 B|--0--2-0-3-0-0-2-0-0-3-0---------0--2-0-3-0-0-2-0-0-3-0-3/5-5-5-5--|

C#|------------------------------------------------|
G#|------------------------------------------------|
 E|------------------------------------------------|
 B|------------------------------------------------|
F#|-------------------------5-5-3-5----------------|
 B|--0--2-0-3-0-0-2-0-0-3-0---------0--2-0-3-0--0--|

©2015 by Fefe - Tron544

Sigueme en:

  • YouTube - White Circle
  • Facebook - White Circle
  • Instagram - White Circle
  • Twitter - White Circle
This site was designed with the
.com
website builder. Create your website today.
Start Now