~ RE:RE: ~

TABLATURAS ~ By Fefe - Tron544

 

Intro:

 

GUITAR 1:

 

e|------------------7-----7--9--7--9---9--|
B|--7---7--9--7--9-----9------------------|
G|----------------------------------------|
D|----------------------------------------|
A|----------------------------------------|
E|----------------------------------------|

 

GUITAR 3:

 

e|--0--0--0--0--0--0---0--0--0--0--0--0--|
B|--0--0--0--0--0--0---0--0--0--0--0--0--|
G|--2--2--2--2--2--2---2--2--2--2--2--2--|
D|--2--2--2--2--2--2---2--2--2--2--2--2--|
A|---------------------------------------|
E|---------------------------------------|

 

GUITAR 1:

 

e|------------------7-----7--9--7--9---9--|
B|--7---7--9--7--9-----9------------------|
G|----------------------------------------|
D|----------------------------------------|
A|----------------------------------------|
E|----------------------------------------|

 

GUITAR 3:

 

e|--0--0--0--0--0--0---0--0--0--0--0--0--|
B|--0--0--0--0--0--0---0--0--0--0--0--0--|
G|--1--1--1--1--1--1---1--1--1--1--1--1--|
D|--2--2--2--2--2--2---2--2--2--2--2--2--|
A|---------------------------------------|
E|---------------------------------------|

 

GUITAR 1:

 

e|------------------7-----7--9--7--9---9--------------------7----------------------(7)-(0)-(9)-(0)--|
B|--7---7--9--7--9-----9--------------------7---7--9--7--9-----9---(7)-(0)-(9)-(0)------------------|
G|--------------------------------------------------------------------------------------------------|
D|--------------------------------------------------------------------------------------------------|
A|--------------------------------------------------------------------------------------------------|
E|--------------------------------------------------------------------------------------------------|

 

GUITAR 3:

 

e|--0--0--0--0--0--0---0--0--0--0--0--0---0--0--0--0--0--0---0--|
B|--0--0--0--0--0--0---0--0--0--0--0--0---0--0--0--0--0--0---0--|
G|--2--2--2--2--2--2---2--2--2--2--2--2---1--1--1--1--1--1---1--|
D|--2--2--2--2--2--2---2--2--2--2--2--2---2--2--2--2--2--2---2--|
A|--------------------------------------------------------------|
E|--------------------------------------------------------------|

 


Verse/Estrofa:

 

GUITAR 1:

 

  /~~~~~~~~~~~~~~~~~~~~( REPEAT x6 / REPITE x6 )~~~~~~~~~~~~~~~~~~~~\
e|------------------(7)-(0)-(9)-(0)-----------------(7)-(0)-(9)-(0)--|
B|--(7)-(0)-(9)-(0)-----------------(7)-(0)-(9)-(0)------------------|
G|-------------------------------------------------------------------|
D|-------------------------------------------------------------------|
A|-------------------------------------------------------------------|
E|-------------------------------------------------------------------|

 

GUITAR 2:

 

  /~~~~~~~~~~~~~~~~~~~~~~~~~~~~~~( REPEAT x3 / REPITE x3 )~~~~~~~~~~~~~~~~~~~~~~~~~~\
e|-------------------------------------------|---------------------------------------|
B|-------------------------------------------|---------------------------------------|
G|-----11--11--11--9------11--11--11--9------|--11--11--11--9------------------------|
D|--9------------------9------------------9--|------------------11--9--11--9--9------|
A|-------------------------------------------|-----------------------------------11--|
E|-------------------------------------------|---------------------------------------|

 

GUITAR 1:

 

e|------------------(7)-(0)-(9)-(0)-----------------(7)-(0)-(9)-(0)--|
B|--(7)-(0)-(9)-(0)-----------------(7)-(0)-(9)-(0)------------------|
G|-------------------------------------------------------------------|
D|-------------------------------------------------------------------|
A|-------------------------------------------------------------------|
E|-------------------------------------------------------------------|

 

GUITAR 2:

 

e|-------------------------------------------|
B|-------------------------------------------|
G|-----11--11--11--9------11--11--11--9------|
D|--9------------------9------------------9--|
A|-------------------------------------------|
E|-------------------------------------------|

 

GUITAR 1:

 

e|------------------(7)-(0)-(9)-(0)-----------------(7)-(0)-(9)-(0)--|
B|--(7)-(0)-(9)-(0)-----------------(7)-(0)-(9)-(0)------------------|
G|-------------------------------------------------------------------|
D|-------------------------------------------------------------------|
A|-------------------------------------------------------------------|
E|-------------------------------------------------------------------|

 

GUITAR 2:

 

e|----------------------------------------|
B|----------------------------------------|
G|--11--11--11--9-------------------------|
D|-----------------11--9--11--11--11--11--|
A|----------------------------------------|
E|----------------------------------------|

 

GUITAR 3:

 

e|-----------------------------------------------------|
B|-----------------------------------------------------|
G|--(6)-x--x--x--x--x--x--x----------------------------|
D|--(6)-x--x--x--x--x--x--x---(2)-x--x--x--x--x--x--x--|
A|--(4)-x--x--x--x--x--x--x---(2)-x--x--x--x--x--x--x--|
E|----------------------------(0)-x--x--x--x--x--x--x--|

 


Pre-Chorus/Pre-Estribillo:

 

GUITAR 1:

 

e|-------------------------------------------------------------------------------------------------------|
B|-------------------------------------------------------------------------------------------------------|
G|--13--11--11---#--#--#---13--11--11--9--9--8--9--9---13--11--11---#--#--#---13--11--11--9--9--8--9--9--|
D|-------------------------------------------------------------------------------------------------------|
A|--11--9---9----#--#--#---11--9---9---7--7--6--7--7---11--9---9----#--#--#---11--9---9---7--7--6--7--7--|
E|-------------------------------------------------------------------------------------------------------|

 

GUITAR 2:

 

e|-----------------------------------------------------------------------------------------------------|
B|-----------------------------------------------------------------------------------------------------|
G|--11-/-13--11--9----------11-/-13--11--11-\-9-------11-/-13--11--9-----------------------------------|
D|--------------------9--9-----------------------11--------------------11--11---11--11-p-9--9----------|
A|---------------------------------------------------------------------------------------------11--11--|
E|-----------------------------------------------------------------------------------------------------|

 

GUITAR 3:

 

e|---------------------------------------------------------|
B|---------------------------------------------------------|
G|---------4--4----------6--6----------4--4----------6--6--|
D|--4--4---4--4---6--6---6--6---4--4---4--4---6--6---6--6--|
A|--4--4---2--2---6--6---4--4---4--4---2--2---6--6---4--4--|
E|--2--2----------4--4----------2--2----------4--4---------|

 

GUITAR 1:

 

e|-------------------------------------------------------------------------------------------------------|
B|-------------------------------------------------------------------------------------------------------|
G|--13--11--11---#--#--#---13--11--11--9--9--8--9--9---13--11--11---#--#--#---13--11--11--9--9--8--9--9--|
D|-------------------------------------------------------------------------------------------------------|
A|--11--9---9----#--#--#---11--9---9---7--7--6--7--7---11--9---9----#--#--#---11--9---9---7--7--6--7--7--|
E|-------------------------------------------------------------------------------------------------------|

 

GUITAR 2:

 

e|-------------------------------------------------------------------------------|
B|-------------------------------------------------------------------------------|
G|--11-/-13--11--9-----------8--9------11-/-13--11--9----------------------------|
D|-------------------11--11---------9------------------11--11--9------9--9-/-11--|
A|----------------------------------------------------------------11-------------|
E|-------------------------------------------------------------------------------|

 

GUITAR 3:

 

e|---------------------------------------------------------|
B|---------------------------------------------------------|
G|---------4--4----------6--6----------4--4----------6--6--|
D|--4--4---4--4---6--6---6--6---4--4---4--4---6--6---6--6--|
A|--4--4---2--2---6--6---4--4---4--4---2--2---6--6---4--4--|
E|--2--2----------4--4----------2--2----------4--4---------|

 


Chorus/Estribillo:

 

GUITAR 2:

 

e|--------------------------------------------------------------------------------|
B|--------------------------------------------------------------------------------|
G|-----11--11--11--9------11--11--11--9------11--11--11--9------------------------|
D|--9------------------9------------------9------------------11--9--11--9--9------|
A|----------------------------------------------------------------------------11--|
E|--------------------------------------------------------------------------------|

 

e|--------------------------------------------------------------------------------------|
B|--------------------------------------------------------------------------------------|
G|-----11--11--11--9------11--11--11--9------11--11--11--9------------------------------|
D|--9------------------9------------------9------------------11--9--11---9--9-----------|
A|------------------------------------------------------------------------------9-/-11--|
E|--------------------------------------------------------------------------------------|


GUITAR 1:

 

  /~~~~~~~~~~~~~~~~~~~~( REPEAT x4 / REPITE x4 )~~~~~~~~~~~~~~~~~~~~\
e|------------------(7)-(0)-(9)-(0)-----------------(7)-(0)-(9)-(0)--|
B|--(7)-(0)-(9)-(0)-----------------(7)-(0)-(9)-(0)------------------|
G|-------------------------------------------------------------------|
D|-------------------------------------------------------------------|
A|-------------------------------------------------------------------|
E|-------------------------------------------------------------------|

 

GUITAR 2:

e|---------------------|--------------------------------|----------------|---------------------|
B|---------------------|--------------------------------|----------------|---------------------|
G|---------------------|--9------9--9--11--11-/-13--11--|--9------9-/-11-|--9---------11-/-13--|
D|---------------------|--------------------------------|----------------|---------9-----------|
A|--9-/-11---9------9--|--------------------------------|----------------|---------------------|
E|---------------------|--------------------------------|----------------|---------------------|

 

GUITAR 3:

 

  /~~~~~~~~~~~~( REPEAT x4 / REPITE x4 )~~~~~~~~~~~~\
e|-(0)-x--x--x--x--x--x--x--(0)-x--x--x--x--x--x--x--|
B|-(0)-x--x--x--x--x--x--x--(0)-x--x--x--x--x--x--x--|
G|-(1)-x--x--x--x--x--x--x--(2)-x--x--x--x--x--x--x--|
D|-(2)-x--x--x--x--x--x--x--(2)-x--x--x--x--x--x--x--|
A|---------------------------------------------------|
E|---------------------------------------------------|

 


Outro:

 

GUITAR 1:

 

  /~~~~~~~~~~~~~~~~~~~~( REPEAT x4 / REPITE x4 )~~~~~~~~~~~~~~~~~~~~\
e|------------------(7)-(0)-(9)-(0)-----------------(7)-(0)-(9)-(0)--|
B|--(7)-(0)-(9)-(0)-----------------(7)-(0)-(9)-(0)------------------|
G|-------------------------------------------------------------------|
D|-------------------------------------------------------------------|
A|-------------------------------------------------------------------|
E|-------------------------------------------------------------------|

 

GUITAR 3:

 

e|--7---9---0--|--7---9---0--|--7---9---0--|--7---9---0---12--12-p-11--11-p-9--9-\-7--7-\-4--4--|
B|--7---9---0--|--7---9---0--|--7---9---0--|--7---9---0-----------------------------------------|
G|-------------|-------------|-------------|----------------------------------------------------|
D|-------------|-------------|-------------|----------------------------------------------------|
A|-------------|-------------|-------------|----------------------------------------------------|
E|-------------|-------------|-------------|----------------------------------------------------|

Re:Re: - Tron544
00:00 / 00:00

©2019 by Fefe - Tron544

Sigueme en:

  • YouTube - White Circle
  • Facebook - White Circle
  • Instagram - White Circle
  • Twitter - White Circle
This site was designed with the
.com
website builder. Create your website today.
Start Now