RAGE ON

FREE!

TABS ~ By Fefe (Tron544)

 

Intro:

 

GUITAR 1:

 

eb|------------------------------|

Bb|------------------------------|

Gb|--4-------------7-------------|

Db|--4------5------7------2---2--|

Ab|--2------5------5------2---2--|

Eb|---------3-------------0---0--|

 

GUITAR 2:

 

eb|-----------------------------------------|

Bb|--10---10--10--8--7--8--7---------10-----|

Gb|---------------------------7---7------9--|

Db|-----------------------------------------|

Ab|-----------------------------------------|

Eb|-----------------------------------------|

GUITAR 1:

 

eb|------------------------------|

Bb|------------------------------|

Gb|--4-------------7------2---3--|

Db|--4------5------7------2---4--|

Ab|--2------5------5------0---1--|

Eb|---------3--------------------|

 

GUITAR 2:

 

eb|--------------------------------------|

Bb|---------10---------------------------|

Gb|--7---7------9--7--9--7--9---6--7--9--|

Db|--------------------------------------|

Ab|--------------------------------------|

Eb|--------------------------------------|

 

GUITAR 3:

 

eb|-----------------------------------------------------------|

Bb|-----------------------------------------------------------|

Gb|--4-------------7--------------4-------------7------2---3--|

Db|--4------5------7------2---2---4------5------7------2---4--|

Ab|--2------5------5------2---2---2------5------5------0---1--|

Eb|---------3-------------0---0----------3--------------------|

 

GUITAR 1:

 

            /~~~~~~~~~~~~~~~~~~( REPEAT x2 / REPITE x2 )~~~~~~~~~~~~~~~~~~\

eb|--------|---------------------------------------------------------------|

Bb|--------|---------------------------------------------------------------|

Gb|--------|------------------------------------------------7--7--7--------|

Db|--#--#--|------------------------------3-----------------7--7--7--7--7--|

Ab|--#--#--|--0-h-2--0-h-2--0-h-2--0-h-2--3---0-h-2--0-h-2--5--5--5--7--7--|

Eb|--#--#--|------------------------------1--------------------------5--5--|

 

GUITAR 3:

 

            /~~~~~~~~~~~~~~~~~~~( REPEAT x2 / REPITE x2 )~~~~~~~~~~~~~~~~~~\

eb|--------|----------------------------------------------------------------|

Bb|--------|----------------------------------------------------------------|

Gb|--#--#--|------------------------------10-----------------7--7--7--------|

Db|--#--#--|--7-h-9--7-h-9--7-h-9--7-h-9--10---7-h-9--7-h-9--7--7--7--7--7--|

Ab|--#--#--|------------------------------8------------------5--5--5--7--7--|

Eb|--------|----------------------------------------------------------5--5--|

 

 

Verse/Estrofa:

 

GUITAR 1:

 

eb|--------------------------|

Bb|--------------------------|

Gb|--4--------------------2--|

Db|--4------5------2------2--|

Ab|--2------5------2------0--|

Eb|---------3------0---------|

 

GUITAR 2:

 

eb|---------------------------------------------------------------------------|

Bb|---------------------------------------------------------------------------|

Gb|--7--7--6------------------------------------------------------------------|

Db|-----------7-----7--9--------------------------------7---------------------|

Ab|--------------9-----------------9--9--7--7--------------9--9------7--7--9--|

Eb|-----------------------10---10--------------10---10-----------10-----------|

 

GUITAR 3:

 

eb|-------------------------------------------------------------------|

Bb|-------------------------------------------------------------------|

Gb|--4----4--4--4---------------------------------2----2--2--2--2--2--|

Db|--4----4--4--4---5----5--5--5---2----2--2--2---2----2--2--2--2--2--|

Ab|--2----2--2--2---5----5--5--5---2----2--2--2---0----0--0--0--0--0--|

Eb|-----------------3----3--3--3---0----0--0--0-----------------------|

 

GUITAR 1:

 

eb|-------------------|

Bb|-------------------|

Gb|--4----------------|

Db|--4------5------2--|

Ab|--2------5------2--|

Eb|---------3------0--|

 

GUITAR 2:

 

eb|---------------------------------------------------|

Bb|---------------------------------------------------|

Gb|--7--7--7--6---------------------------------------|

Db|--------------7-----7--9---------------------------|

Ab|-----------------9-----------------9--9--7--7------|

Eb|--------------------------10---10--------------10--|

 

GUITAR 3:

 

eb|-------------------------------------------------------------------------|

Bb|-------------------------------------------------------------------------|

Gb|-------------------------------------------------------------------------|

Db|--9--7-h-9--9---------7---9--7-h-9--9---------7---9--7-h-9--9---------7--|

Ab|---------------7-h-9-------------------7-h-9-------------------7-h-9-----|

Eb|-------------------------------------------------------------------------|

 

GUITAR 1:

 

eb|---------|

Bb|---------|

Gb|--2---3--|

Db|--2---4--|

Ab|--0---1--|

Eb|---------|

 

GUITAR 2:

 

eb|---------------------------|

Bb|---------------------------|

Gb|------------------------7--|

Db|------7--7--7--7--7--9-----|

Ab|---------------------------|

Eb|--10-----------------------|

 

GUITAR 3:

 

eb|------------------------------------------------------------------|

Bb|--12--12--12--12--12--12--12--12--12--12--12--12--14--14--14--14--|

Gb|------------------------------------------------------------------|

Db|--9---9---9---9---9---9---9---9---9---9---9---9---11--11--11--11--|

Ab|------------------------------------------------------------------|

Eb|------------------------------------------------------------------|

 

GUITAR 1:

 

eb|----------------------------------------------------------------------|

Bb|----------------------------------------------------------------------|

Gb|--4---#--#--#--#--#--#--#---7---5---4---#--#--#--#--#--#--#---10---5--|

Db|--4---#--#--#--#--#--#--#---7---5---4---#--#--#--#--#--#--#---10---5--|

Ab|--2---#--#--#--#--#--#--#---5---3---2---#--#--#--#--#--#--#---8----3--|

Eb|----------------------------------------------------------------------|

 

GUITAR 2:

 

eb|---------------------------------------------------|

Bb|---------------------------------------------------|

Gb|---------------------------------------------------|

Db|--9--7--9--7--9--7--9--7---9--7--9--7--9--7--9--9--|

Ab|---------------------------------------------------|

Eb|---------------------------------------------------|

 

GUITAR 3:

 

eb|----------------------------------------------------------------------|

Bb|----------------------------------------------------------------------|

Gb|--4---#--#--#--#--#--#--#---7---5---4---#--#--#--#--#--#--#---10---5--|

Db|--4---#--#--#--#--#--#--#---7---5---4---#--#--#--#--#--#--#---10---5--|

Ab|--2---#--#--#--#--#--#--#---5---3---2---#--#--#--#--#--#--#---8----3--|

Eb|----------------------------------------------------------------------|

 

GUITAR 1:

 

eb|-----------------------------------------------------------------|

Bb|-----------------------------------------------------------------|

Gb|--4---#--#--#--#--#--#--#---7---5---4---#--#--#--#--#--#--#---7--|

Db|--4---#--#--#--#--#--#--#---7---5---4---#--#--#--#--#--#--#---7--|

Ab|--2---#--#--#--#--#--#--#---5---3---2---#--#--#--#--#--#--#---5--|

Eb|-----------------------------------------------------------------|

 

GUITAR 2:

 

eb|---------------------------------------------|

Bb|---------------------------------------------|

Gb|---------------------------------------------|

Db|--9--7--9--7--9--7--9--9---9--7--7--9--7--9--|

Ab|---------------------------------------------|

Eb|---------------------------------------------|

 

GUITAR 3:

 

eb|-----------------------------------------------------------------|

Bb|-----------------------------------------------------------------|

Gb|--4---#--#--#--#--#--#--#---7---5---4---#--#--#--#--#--#--#---7--|

Db|--4---#--#--#--#--#--#--#---7---5---4---#--#--#--#--#--#--#---7--|

Ab|--2---#--#--#--#--#--#--#---5---3---2---#--#--#--#--#--#--#---5--|

Eb|-----------------------------------------------------------------|

 

 

Pre-Chorus/Pre-Estribillo:

 

GUITAR 1:

 

eb|---------------------------------------------------------------------------|

Bb|---------------------------------------------------------------------------|

Gb|---------------------------------------------------------------------------|

Db|--2--2--2--2--2--2--2--2--2--2--2--2---4--4--4--4--4--4--4--4--4--4--4--4--|

Ab|--2--2--2--2--2--2--2--2--2--2--2--2---4--4--4--4--4--4--4--4--4--4--4--4--|

Eb|--0--0--0--0--0--0--0--0--0--0--0--0---2--2--2--2--2--2--2--2--2--2--2--2--|

 

GUITAR 2:

 

eb|------------------------|

Bb|------------------------|

Gb|---7--6--7--6--7--6-----|

Db|---------------------7--|

Ab|------------------------|

Eb|------------------------|

 

GUITAR 3:

 

eb|-----------------------------------------------------------------------------------------------------|

Bb|-----------------------------------------------------------------------------------------------------|

Gb|--4--4--4--4--4--4--4--4---4--4--4--4--4--4--4--4---6--6--6--6--6--6--6--6---6--6--6--6--6--6--6--6--|

Db|-----------------------------------------------------------------------------------------------------|

Ab|--2--2--2--2--2--2--2--2---2--2--2--2--2--2--2--2---4--4--4--4--4--4--4--4---4--4--4--4--4--4--4--4--|

Eb|-----------------------------------------------------------------------------------------------------|

 

GUITAR 1:

 

eb|---------------------------------------------------------------------------|

Bb|---------------------------------------------------------------------------|

Gb|---------------------------------------------------------------------------|

Db|--5--5--5--5--5--5--5--5--5--5--5--5---7--7--7--7--7--7--7--7--7--7--7--7--|

Ab|--5--5--5--5--5--5--5--5--5--5--5--5---7--7--7--7--7--7--7--7--7--7--7--7--|

Eb|--3--3--3--3--3--3--3--3--3--3--3--3---5--5--5--5--5--5--5--5--5--5--5--5--|

 

GUITAR 2:

 

eb|------------------------|

Bb|---------------------7--|

Gb|------7--7--9--7--9-----|

Db|--5---------------------|

Ab|------------------------|

Eb|------------------------|

 

GUITAR 3:

 

eb|-----------------------------------------------------------------------------------------------------|

Bb|-----------------------------------------------------------------------------------------------------|

Gb|--7--7--7--7--7--7--7--7---7--7--7--7--7--7--7--7---9--9--9--9--9--9--9--9---9--9--9--9--9--9--9--9--|

Db|-----------------------------------------------------------------------------------------------------|

Ab|--5--5--5--5--5--5--5--5---5--5--5--5--5--5--5--5---7--7--7--7--7--7--7--7---7--7--7--7--7--7--7--7--|

Eb|-----------------------------------------------------------------------------------------------------|

 

GUITAR 1:

 

eb|--------------------------------------|

Bb|--------------------------------------|

Gb|--------------------------------------|

Db|--2--2--2--2--2--2--2--2--2--2--2--2--|

Ab|--2--2--2--2--2--2--2--2--2--2--2--2--|

Eb|--0--0--0--0--0--0--0--0--0--0--0--0--|

 

GUITAR 2:

 

eb|------------|

Bb|---------7--|

Gb|--7---9-----|

Db|------------|

Ab|------------|

Eb|------------|

 

GUITAR 3:

 

eb|-----------------------------------------------------------|

Bb|-----------------------------------------------------------|

Gb|--9--9--9--9--9--9--9--9---11--11--11--11--12--12--12--12--|

Db|-----------------------------------------------------------|

Ab|--7--7--7--7--7--7--7--7---9---9---9---9---10--10--10--10--|

Eb|-----------------------------------------------------------|

 

GUITAR 1:

 

eb|--------------------------------------|

Bb|--------------------------------------|

Gb|--2--2--2--2--2--2--2--2--2--2--2--2--|

Db|--2--2--2--2--2--2--2--2--2--2--2--2--|

Ab|--0--0--0--0--0--0--0--0--0--0--0--0--|

Eb|--------------------------------------|

 

GUITAR 2:

 

eb|-----|

Bb|-----|

Gb|--9--|

Db|-----|

Ab|-----|

Eb|-----|

 

GUITAR 3:

 

eb|-------------------------------------------------------------------|

Bb|-------------------------------------------------------------------|

Gb|--14--14--14--14--14--14--14--14---12--12--12--12--11--11--11--11--|

Db|-------------------------------------------------------------------|

Ab|--12--12--12--12--12--12--12--12---10--10--10--10--9---9---9---9---|

Eb|-------------------------------------------------------------------|

 

GUITAR 1:

 

eb|--------------------------------------|

Bb|--------------------------------------|

Gb|--------------------------------------|

Db|--2--2--2--2--2--2--2--2--2--2--2--2--|

Ab|--2--2--2--2--2--2--2--2--2--2--2--2--|

Eb|--0--0--0--0--0--0--0--0--0--0--0--0--|

 

GUITAR 2:

 

eb|-----------|

Bb|--------7--|

Gb|--7--9-----|

Db|-----------|

Ab|-----------|

Eb|-----------|

 

GUITAR 3:

 

eb|-----------------------------------------------------------|

Bb|-----------------------------------------------------------|

Gb|--9--9--9--9--9--9--9--9---11--11--11--11--12--12--12--12--|

Db|-----------------------------------------------------------|

Ab|--7--7--7--7--7--7--7--7---9---9---9---9---10--10--10--10--|

Eb|-----------------------------------------------------------|

 

GUITAR 1:

 

eb|---------------------------------------|

Bb|---------------------------------------|

Gb|--2--2--2--2--2--2---3--3--3--3--3--3--|

Db|--2--2--2--2--2--2---4--4--4--4--4--4--|

Ab|--0--0--0--0--0--0---1--1--1--1--1--1--|

Eb|---------------------------------------|

 

GUITAR 2:

 

eb|-----|

Bb|-----|

Gb|--9--|

Db|-----|

Ab|-----|

Eb|-----|

 

GUITAR 3:

 

eb|-------------------------------------------------------------------|

Bb|-------------------------------------------------------------------|

Gb|--14--14--14--14--14--14--14--14---16--16--16--16--18--18--18--18--|

Db|-------------------------------------------------------------------|

Ab|--12--12--12--12--12--12--12--12---14--14--14--14--16--16--16--16--|

Eb|-------------------------------------------------------------------|

Rage On - Tron544
00:00 / 00:00
DONATE%20BUTTON%20(EN)_edited.png

Chorus/Estribillo:

 

GUITAR 1:

 

eb|---------------------------------|

Bb|---------------------------------|

Gb|--4--4--4--4--4------------------|

Db|--4--4--4--4--4---5--5--5--5--5--|

Ab|--2--2--2--2--2---5--5--5--5--5--|

Eb|------------------3--3--3--3--3--|

 

GUITAR 2:

 

eb|---------------------------|

Bb|--10---10--10--8--7--8--7--|

Gb|---------------------------|

Db|---------------------------|

Ab|---------------------------|

Eb|---------------------------|

 

GUITAR 3:

 

eb|-------------------------------------------------------------------|

Bb|-------------------------------------------------------------------|

Gb|--19--19--19--19--19--19--19--19---14--14--14--14--14--14--14--14--|

Db|-------------------------------------------------------------------|

Ab|--17--17--17--17--17--17--17--17---12--12--12--12--12--12--12--12--|

Eb|-------------------------------------------------------------------|

 

GUITAR 1:

 

eb|---------------------------------|

Bb|---------------------------------|

Gb|--7--7--7--7--7------------------|

Db|--7--7--7--7--7---2--2--2--2--2--|

Ab|--5--5--5--5--5---2--2--2--2--2--|

Eb|------------------0--0--0--0--0--|

 

GUITAR 2:

 

eb|-------------------|

Bb|---------10--------|

Gb|--7---7------9--7--|

Db|-------------------|

Ab|-------------------|

Eb|-------------------|

 

GUITAR 3:

 

eb|-------------------------------------------------------------------|

Bb|-------------------------------------------------------------------|

Gb|--11--11--11--11--11--11--11--11---14--14--14--14--14--14--14--14--|

Db|-------------------------------------------------------------------|

Ab|--9---9---9---9---9---9---9---9----12--12--12--12--12--12--12--12--|

Eb|-------------------------------------------------------------------|

 

 

GUITAR 1:

 

eb|---------------------------------|

Bb|---------------------------------|

Gb|--4--4--4--4--4------------------|

Db|--4--4--4--4--4---5--5--5--5--5--|

Ab|--2--2--2--2--2---5--5--5--5--5--|

Eb|------------------3--3--3--3--3--|

 

GUITAR 2:

 

eb|------------------|

Bb|-----10-----------|

Gb|--7------9--7--9--|

Db|------------------|

Ab|------------------|

Eb|------------------|

 

GUITAR 3:

 

eb|-------------------------------------------------------------------|

Bb|-------------------------------------------------------------------|

Gb|--19--19--19--19--19--19--19--19---14--14--14--14--14--14--14--14--|

Db|-------------------------------------------------------------------|

Ab|--17--17--17--17--17--17--17--17---12--12--12--12--12--12--12--12--|

Eb|-------------------------------------------------------------------|

 

GUITAR 1:

 

eb|-------------------------------|

Bb|-------------------------------|

Gb|--7--7--7--7--7---2--2---3--3--|

Db|--7--7--7--7--7---2--2---4--4--|

Ab|--5--5--5--5--5---0--0---1--1--|

Eb|-------------------------------|

 

GUITAR 2:

 

eb|------------------|

Bb|------------------|

Gb|--7--9---6--7--9--|

Db|------------------|

Ab|------------------|

Eb|------------------|

 

GUITAR 3:

 

eb|-------------------------------------------------------------------|

Bb|-------------------------------------------------------------------|

Gb|--11--11--11--11--11--11--11--11---12--12--12--12--14--14--14--14--|

Db|-------------------------------------------------------------------|

Ab|--9---9---9---9---9---9---9---9----10--10--10--10--12--12--12--12--|

Eb|-------------------------------------------------------------------|

 

GUITAR 1:

 

eb|---------------------------------|

Bb|---------------------------------|

Gb|--4--4--4--4--4------------------|

Db|--4--4--4--4--4---5--5--5--5--5--|

Ab|--2--2--2--2--2---5--5--5--5--5--|

Eb|------------------3--3--3--3--3--|

 

GUITAR 2:

 

eb|---------------------------|

Bb|--10---10--10--8--7--8--7--|

Gb|---------------------------|

Db|---------------------------|

Ab|---------------------------|

Eb|---------------------------|

 

GUITAR 3:

 

eb|-------------------------------------------------------------------|

Bb|-------------------------------------------------------------------|

Gb|--19--19--19--19--19--19--19--19---14--14--14--14--14--14--14--14--|

Db|-------------------------------------------------------------------|

Ab|--17--17--17--17--17--17--17--17---12--12--12--12--12--12--12--12--|

Eb|-------------------------------------------------------------------|

 

GUITAR 1:

 

eb|---------------------------------|

Bb|---------------------------------|

Gb|--7--7--7--7--7------------------|

Db|--7--7--7--7--7---2--2--2--2--2--|

Ab|--5--5--5--5--5---2--2--2--2--2--|

Eb|------------------0--0--0--0--0--|

 

GUITAR 2:

 

eb|-------------------------|

Bb|---------10--------------|

Gb|--7---7------9--9--7--9--|

Db|-------------------------|

Ab|-------------------------|

Eb|-------------------------|

 

GUITAR 3:

 

eb|-------------------------------------------------------------------|

Bb|-------------------------------------------------------------------|

Gb|--11--11--11--11--11--11--11--11---14--14--14--14--14--14--14--14--|

Db|-------------------------------------------------------------------|

Ab|--9---9---9---9---9---9---9---9----12--12--12--12--12--12--12--12--|

Eb|-------------------------------------------------------------------|

 

GUITAR 1:

 

eb|---------------------------------|

Bb|---------------------------------|

Gb|--4--4--4--4--4------------------|

Db|--4--4--4--4--4---5--5--5--5--5--|

Ab|--2--2--2--2--2---5--5--5--5--5--|

Eb|------------------3--3--3--3--3--|

 

GUITAR 2:

 

eb|-------------------------------|

Bb|------------------7------8--7--|

Gb|--7------7--9--9---------------|

Db|-----9----------------7--------|

Ab|-------------------------------|

Eb|-------------------------------|

 

GUITAR 3:

 

eb|-------------------------------------------------------------------|

Bb|-------------------------------------------------------------------|

Gb|--19--19--19--19--19--19--19--19---14--14--14--14--14--14--14--14--|

Db|-------------------------------------------------------------------|

Ab|--17--17--17--17--17--17--17--17---12--12--12--12--12--12--12--12--|

Eb|-------------------------------------------------------------------|

 

GUITAR 1:

 

eb|---------------------------------|

Bb|---------------------------------|

Gb|--7--7--7--7--7---2--2--2--2--2--|

Db|--7--7--7--7--7---2--2--2--2--2--|

Ab|--5--5--5--5--5---0--0--0--0--0--|

Eb|---------------------------------|

 

GUITAR 2:

 

eb|--------------|

Bb|--------------|

Gb|--9--9--7--9--|

Db|--------------|

Ab|--------------|

Eb|--------------|

 

GUITAR 3:

 

eb|-------------------------------------------------------------------|

Bb|-------------------------------------------------------------------|

Gb|--11--11--11--11--11--11--11--11---12--12--12--12--14--14--14--14--|

Db|-------------------------------------------------------------------|

Ab|--9---9---9---9---9---9---9---9----10--10--10--10--12--12--12--12--|

Eb|-------------------------------------------------------------------|

 

GUITAR 1:

 

eb|--------------------------------------|

Bb|--------------------------------------|

Gb|--------------------------------------|

Db|--5--5--5--5--5--5--5--5--5--5--5--5--|

Ab|--5--5--5--5--5--5--5--5--5--5--5--5--|

Eb|--3--3--3--3--3--3--3--3--3--3--3--3--|

 

GUITAR 2:

 

eb|-------------|

Bb|-------------|

Gb|--7-------7--|

Db|-----9-------|

Ab|-------------|

Eb|-------------|

 

GUITAR 3:

 

eb|------------------------------------------------------------------|

Bb|--12--12--12--12--12--12--12--12--12--12--12--12--12--12--12--12--|

Gb|------------------------------------------------------------------|

Db|--9---9---9---9---9---9---9---9---9---9---9---9---9---9---9---9---|

Ab|------------------------------------------------------------------|

Eb|------------------------------------------------------------------|

 

GUITAR 1:

 

eb|---------------------------------|

Bb|---------------------------------|

Gb|--9--9--9--9--9------------------|

Db|--9--9--9--9--9---7--7--7--7--7--|

Ab|--7--7--7--7--7---7--7--7--7--7--|

Eb|------------------5--5--5--5--5--|

 

GUITAR 2:

 

eb|--------------|

Bb|--------------|

Gb|--7-----------|

Db|-----9--7--9--|

Ab|--------------|

Eb|--------------|

 

GUITAR 3:

 

eb|-------------------------------------------------------------------|

Bb|--14--14--14--14--14--14--14--14---17--17--17--17--17--17--17--17--|

Gb|-------------------------------------------------------------------|

Db|--11--11--11--11--11--11--11--11---14--14--14--14--14--14--14--14--|

Ab|-------------------------------------------------------------------|

Eb|-------------------------------------------------------------------|

 

GUITAR 1:

 

eb|-------------------|

Bb|-------------------|

Gb|-------------------|

Db|--9------9------9--|

Ab|--9------9------9--|

Eb|--7------7------7--|

 

GUITAR 3:

 

eb|---------------------------------------|

Bb|---------------------------------------|

Gb|--4--4--4--4--4--4---4--4--4--4--4--4--|

Db|---------------------------------------|

Ab|--2--2--2--2--2--2---2--2--2--2--2--2--|

Eb|---------------------------------------|

©2015 by Fefe - Tron544

Sigueme en:

  • YouTube - White Circle
  • Facebook - White Circle
  • Instagram - White Circle
  • Twitter - White Circle
This site was designed with the
.com
website builder. Create your website today.
Start Now