~ PURE PURE HEART ~

TABLATURAS ~ By Fefe - Tron544

 

Intro:

 

GUITAR 3:

 

e|-------------------|

B|-------------------|

G|-------------------|

D|--9-------9--9--9--|

A|--9-------9--9--9--|

E|--7-------7--7--7--|

 

GUITAR 2:

 

e|----------------------------------------------------|
B|--12--12--x--x--12--12--x--x--12--12--x--x--12--12--|
G|----------------------------------------------------|
D|----------------------------------------------------|
A|----------------------------------------------------|
E|----------------------------------------------------|

 

GUITAR 3:

 

e|-----|
B|-----|
G|-----|

D|--9--|
A|--9--|
E|--7--|

 

GUITAR 2:

 

e|----------------------------------------------------------|

B|--x--x--12--12--x--x--12--12--x--x--12--12--x--x--11--11--|

G|----------------------------------------------------------|

D|----------------------------------------------------------|

A|----------------------------------------------------------|

E|----------------------------------------------------------|

 

GUITAR 3:

 

e|-----|

B|-----|

G|--8--|

D|--8--|

A|--6--|

E|-----|

 

GUITAR 2:

 

e|----------------------------------------------------|----------------------------------------------------------|

B|--12--12--x--x--12--12--x--x--12--12--x--x--12--12--|--x--x--12--12--x--x--12--12--x--x--12--12--x--x--14--14--|

G|----------------------------------------------------|----------------------------------------------------------|

D|----------------------------------------------------|----------------------------------------------------------|

A|----------------------------------------------------|----------------------------------------------------------|

E|----------------------------------------------------|----------------------------------------------------------|

 

GUITAR 3:

 

e|-----|------------|

B|-----|------------|

G|-----|------------|

D|--6--|--2------4--|

A|--6--|--2------4--|

E|--4--|--0------2--|

 

 

Verse/Estrofa:

 

GUITAR 1:

 

e|-------------------------------------|------------------------------------|

B|-------------------------------------|------------7-----------------------|

G|--8--8---8--6--6--6-----6-----6---8--|--8--8---8-----8--8--6--6-----6--8--|

D|---------------------9-----9---------|---------------------------9--------|

A|-------------------------------------|------------------------------------|

E|-------------------------------------|------------------------------------|

 

GUITAR 3:

 

e|---------------------------------------------------|---------------------------------------------------|

B|---------------------------------------------------|---------------------------------------------------|

G|---------------------------------------------------|--x--x--8--x--x--8--x--x---x--x--8--x--x--8--x--x--|

D|--x--x--9--x--x--9--x--x---x--x--9--x--x--9--x--x--|--x--x--8--x--x--8--x--x---x--x--8--x--x--8--x--x--|

A|--x--x--9--x--x--9--x--x---x--x--9--x--x--9--x--x--|--x--x--6--x--x--6--x--x---x--x--6--x--x--6--x--x--|

E|--x--x--7--x--x--7--x--x---x--x--7--x--x--7--x--x--|---------------------------------------------------|

 

GUITAR 1:

 

e|-------------------------------------|------------------------------|

B|-------------------------------------|------------------------------|

G|--8--8---8--6--6--6-----6-----6---8--|--9--8---------8--6-----6--8--|

D|---------------------9-----9---------|--------8------------9--------|

A|-------------------------------------|------------------------------|

E|-------------------------------------|------------------------------|

 

GUITAR 3:

 

e|---------------------------------------------------|---------------------------------------------------|

B|---------------------------------------------------|---------------------------------------------------|

G|---------------------------------------------------|---------------------------------------------------|

D|--x--x--6--x--x--6--x--x---x--x--6--x--x--6--x--x--|--x--x--2--x--x--2--x--x---x--x--4--x--x--4--x--x--|

A|--x--x--6--x--x--6--x--x---x--x--6--x--x--6--x--x--|--x--x--2--x--x--2--x--x---x--x--4--x--x--4--x--x--|

E|--x--x--4--x--x--4--x--x---x--x--4--x--x--4--x--x--|--x--x--0--x--x--0--x--x---x--x--2--x--x--2--x--x--|

 

GUITAR 1:

 

e|-------------------------------------|------------------------------------|

B|-------------------------------------|------------7-----------------------|

G|--8--8---8--6--6--6-----6-----6---8--|--8--8---8-----8--8--6--6-----6--8--|

D|---------------------9-----9---------|---------------------------9--------|

A|-------------------------------------|------------------------------------|

E|-------------------------------------|------------------------------------|

 

GUITAR 2:

 

e|--------------------------------------------|--------------------------------------------------|

B|--------------------------------------------|--------------------------------------------------|

G|--8--8--x--x--8--8--x--x--8--8--x--x--8--8--|--x--x--8--8--x--x--8--8--x--x--8--8--x--x--8--8--|

D|--------------------------------------------|--------------------------------------------------|

A|--------------------------------------------|--------------------------------------------------|

E|--------------------------------------------|--------------------------------------------------|

 

GUITAR 3:

 

e|---------------------------------------------------|---------------------------------------------------|

B|---------------------------------------------------|---------------------------------------------------|

G|---------------------------------------------------|--x--x--8--x--x--8--x--x---x--x--8--x--x--8--x--x--|

D|--x--x--9--x--x--9--x--x---x--x--9--x--x--9--x--x--|--x--x--8--x--x--8--x--x---x--x--8--x--x--8--x--x--|

A|--x--x--9--x--x--9--x--x---x--x--9--x--x--9--x--x--|--x--x--6--x--x--6--x--x---x--x--6--x--x--6--x--x--|

E|--x--x--7--x--x--7--x--x---x--x--7--x--x--7--x--x--|---------------------------------------------------|

 

GUITAR 1:

 

e|-------------------------------------|------------------------------|

B|-------------------------------------|------------------------------|

G|--8--8---8--6--6--6-----6-----6---8--|--9--8---------8--6-----6--8--|

D|---------------------9-----9---------|--------8------------9--------|

A|-------------------------------------|------------------------------|

E|-------------------------------------|------------------------------|

 

GUITAR 2:

 

e|--------------------------------------------|------------------------------------------------------|

B|--------------------------------------------|------------------------------------------------------|

G|--8--8--x--x--8--8--x--x--8--8--x--x--8--8--|--x--x--9--9--x--x--9--9--x--x--11--11--x--x--11--11--|

D|--------------------------------------------|------------------------------------------------------|

A|--------------------------------------------|------------------------------------------------------|

E|--------------------------------------------|------------------------------------------------------|

 

GUITAR 3:

 

e|---------------------------------------------------|---------------------------------------------------|

B|---------------------------------------------------|---------------------------------------------------|

G|---------------------------------------------------|---------------------------------------------------|

D|--x--x--6--x--x--6--x--x---x--x--6--x--x--6--x--x--|--x--x--2--x--x--2--x--x---x--x--4--x--x--4--x--x--|

A|--x--x--6--x--x--6--x--x---x--x--6--x--x--6--x--x--|--x--x--2--x--x--2--x--x---x--x--4--x--x--4--x--x--|

E|--x--x--4--x--x--4--x--x---x--x--4--x--x--4--x--x--|--x--x--0--x--x--0--x--x---x--x--2--x--x--2--x--x--|

 

 

Pre-Chorus/Pre-Estribillo:

 

GUITAR 1:

 

e|--------6--7-------------------|--------------------------------------------|

B|--7--9-------------------------|--------------------------------------------|

G|----------------8--8--6-----8--|--9--9--9--9--8--6-----6---8--6--8--6-------|

D|-------------------------9-----|--------------------9--------------------9--|

A|-------------------------------|--------------------------------------------|

E|-------------------------------|--------------------------------------------|

 

GUITAR 2:

 

e|--11--------------|--9---------------9-----|

B|------11------12--|------9--------------9--|

G|----------11------|---------9----9---------|

D|------------------|------------------------|

A|------------------|------------------------|

E|------------------|------------------------|

 

GUITAR 3:

 

e|----------------------|-----4------------2--------|

B|----------------------|--------5------------2-----|

G|--8--8--8-------4-----|--6--------6---------------|

D|--8--8--8---6------6--|--6------------4--------4--|

A|--6--6--6---6---------|--4------------4--------4--|

E|------------4---------|---------------2--------2--|

 

GUITAR 1:

 

e|--------6--7-------------------|--------------------------------------------|

B|--7--9-------------------------|--------------------------------------------|

G|----------------8--8--6-----8--|--11---9--9--8--8-------11---9--9--8--8-----|

D|-------------------------9-----|-------------------9---------------------9--|

A|-------------------------------|--------------------------------------------|

E|-------------------------------|--------------------------------------------|

 

GUITAR 2:

 

e|--11-------------------14--11------|--9---------|

B|------11------12-------------------|------9-----|

G|----------11-------11----------11--|---------9--|

D|-----------------------------------|------------|

A|-----------------------------------|------------|

E|-----------------------------------|------------|

 

GUITAR 3:

 

e|----------------------|-----4------------4--------|

B|----------------------|--------5------------5-----|

G|--8--8--8-------4-----|--6--------6---6--------6--|

D|--8--8--8---6------6--|--6------------6-----------|

A|--6--6--6---6---------|--4------------4-----------|

E|------------4---------|---------------------------|

 

GUITAR 1:

 

e|----------------------------------------|

B|----------------------------9---11--11--|

G|--11--9--9--8--9--8--9--11--------------|

D|----------------------------------------|

A|----------------------------------------|

E|----------------------------------------|

 

GUITAR 2:

 

e|--2--2--2--2---2--4--5--6--|

B|--2--2--2--2---2--4--5--6--|

G|--3--3--3--3---3--5--6--7--|

D|---------------------------|

A|---------------------------|

E|---------------------------|

 

GUITAR 3:

 

e|---------------------------|

B|---------------------------|

G|---------------------------|

D|--4--4--4--4---4--6--7--8--|

A|--4--4--4--4---4--6--7--8--|

E|--2--2--2--2---2--4--5--6--|

 

 

Chorus/Estribillo:

 

GUITAR 1:

 

e|----------------------------------------------|--------------------------------------------------|

B|--12---11--12---11--12----------------11--11--|--12---11--12---11--12--------------------11--11--|

G|--------------------------11--11--11----------|--------------------------12--12--12--12----------|

D|----------------------------------------------|--------------------------------------------------|

A|----------------------------------------------|--------------------------------------------------|

E|----------------------------------------------|--------------------------------------------------|

 

GUITAR 2:

 

e|----------------------------------------------------|----------------------------------------------------------|

B|--12--12--x--x--12--12--x--x--12--12--x--x--12--12--|--x--x--12--12--x--x--12--12--x--x--12--12--x--x--11--11--|

G|----------------------------------------------------|----------------------------------------------------------|

D|----------------------------------------------------|----------------------------------------------------------|

A|----------------------------------------------------|----------------------------------------------------------|

E|----------------------------------------------------|----------------------------------------------------------|

 

GUITAR 3:

 

e|-----|-------------|

B|-----|-------------|

G|-----|--8------12--|

D|--9--|--8----------|

A|--9--|--6------10--|

E|--7--|-------------|

 

GUITAR 1:

 

e|----------------------------------------------|-------------------------------|

B|--12---11--12---11--12----------------11--11--|--------------12--12---11--11--|

G|--------------------------11--11--11----------|--12--9--12--------------------|

D|----------------------------------------------|-------------------------------|

A|----------------------------------------------|-------------------------------|

E|----------------------------------------------|-------------------------------|

 

GUITAR 2:

 

e|----------------------------------------------------|----------------------------------------------------------|

B|--12--12--x--x--12--12--x--x--12--12--x--x--12--12--|--x--x--12--12--x--x--12--12--x--x--12--12--x--x--14--14--|

G|----------------------------------------------------|----------------------------------------------------------|

D|----------------------------------------------------|----------------------------------------------------------|

A|----------------------------------------------------|----------------------------------------------------------|

E|----------------------------------------------------|----------------------------------------------------------|

 

GUITAR 3:

 

e|-----|---------------------|

B|-----|---------------------|

G|-----|---------------------|

D|--6--|--2------4--6--7--8--|

A|--6--|--2------4--6--7--8--|

E|--4--|--0------2--4--5--6--|

 

GUITAR 1:

 

e|----------------------------------------------|--------------------------------------------------|

B|--12---11--12---11--12----------------11--11--|--12---11--12---11--12--------------------11--11--|

G|--------------------------11--11--11----------|--------------------------12--12--12--12----------|

D|----------------------------------------------|--------------------------------------------------|

A|----------------------------------------------|--------------------------------------------------|

E|----------------------------------------------|--------------------------------------------------|

 

GUITAR 2:

 

e|----------------------------------------------------|----------------------------------------------------------|

B|--12--12--x--x--12--12--x--x--12--12--x--x--12--12--|--x--x--12--12--x--x--12--12--x--x--12--12--x--x--11--11--|

G|----------------------------------------------------|----------------------------------------------------------|

D|----------------------------------------------------|----------------------------------------------------------|

A|----------------------------------------------------|----------------------------------------------------------|

E|----------------------------------------------------|----------------------------------------------------------|

 

GUITAR 3:

 

e|-----|-------------|

B|-----|-------------|

G|-----|--8------12--|

D|--9--|--8----------|

A|--9--|--6------10--|

E|--7--|-------------|

 

GUITAR 1:

 

e|----------------------------------------------|----------------------------------|

B|--12---11--12---11--12----------------11--11--|---12---11--12------12---14---12--|

G|--------------------------11--11--11----------|----------------------------------|

D|----------------------------------------------|----------------------------------|

A|----------------------------------------------|----------------------------------|

E|----------------------------------------------|----------------------------------|

 

GUITAR 2:

 

e|----------------------------------------------------|----------------------------------------------------------|

B|--12--12--x--x--12--12--x--x--12--12--x--x--12--12--|--x--x--12--12--x--x--12--12--x--x--12--12--x--x--14--14--|

G|----------------------------------------------------|----------------------------------------------------------|

D|----------------------------------------------------|----------------------------------------------------------|

A|----------------------------------------------------|----------------------------------------------------------|

E|----------------------------------------------------|----------------------------------------------------------|

 

GUITAR 3:

 

e|-----|------------|

B|-----|------------|

G|-----|------------|

D|--6--|--2------4--|

A|--6--|--2------4--|

E|--4--|--0------2--|

 

 

Outro:

 

GUITAR 2:

 

e|----------------------------------------------------|----------------------------------------------------------|

B|--12--12--x--x--12--12--x--x--12--12--x--x--12--12--|--x--x--12--12--x--x--12--12--x--x--12--12--x--x--11--11--|

G|----------------------------------------------------|----------------------------------------------------------|

D|----------------------------------------------------|----------------------------------------------------------|

A|----------------------------------------------------|----------------------------------------------------------|

E|----------------------------------------------------|----------------------------------------------------------|

 

GUITAR 3:

 

e|-----|-----|

B|-----|-----|

G|-----|--8--|

D|--9--|--8--|

A|--9--|--6--|

E|--7--|-----|

 

GUITAR 2:

 

e|----------------------------------------------------|----------------------------------------------------------|

B|--12--12--x--x--12--12--x--x--12--12--x--x--12--12--|--x--x--12--12--x--x--12--12--x--x--12--12--x--x--14--14--|

G|----------------------------------------------------|----------------------------------------------------------|

D|----------------------------------------------------|----------------------------------------------------------|

A|----------------------------------------------------|----------------------------------------------------------|

E|----------------------------------------------------|----------------------------------------------------------|

 

GUITAR 3:

 

e|-----|------------|

B|-----|------------|

G|-----|------------|

D|--6--|--2------4--|

A|--6--|--2------4--|

E|--4--|--0------2--|

 

GUITAR 1:

 

e|------------------------------------------------------------|

B|------------------------------------------------------------|

G|--4--4--4---6--6--6---8--8---9--9--9---11--11--11---13--13--|

D|------------------------------------------------------------|

A|--2--2--2---4--4--4---6--6---7--7--7---9---9---9----11--11--|

E|------------------------------------------------------------|

 

GUITAR 2:

 

e|----------------------------------------------------|

B|--12--12--x--x--12--12--x--x--12--12--x--x--12--12--|

G|----------------------------------------------------|

D|----------------------------------------------------|

A|----------------------------------------------------|

E|----------------------------------------------------|

 

GUITAR 3:

 

e|---------------------------|

B|---------------------------|

G|---------------------------|

D|--9--9--9--9---9--9--9--9--|

A|--9--9--9--9---9--9--9--9--|

E|--7--7--7--7---7--7--7--7--|

 

GUITAR 1:

 

e|------------------------------------------------------------------|

B|--11--11--11---12--12--12---14--14---16--16--16--16---16--16--16--|

G|------------------------------------------------------------------|

D|--8---8---8----9---9---9----11--11---13--13--13--13---13--13--13--|

A|------------------------------------------------------------------|

E|------------------------------------------------------------------|

 

GUITAR 2:

 

e|----------------------------------------------------------|

B|--x--x--12--12--x--x--12--12--x--x--12--12--x--x--11--11--|

G|----------------------------------------------------------|

D|----------------------------------------------------------|

A|----------------------------------------------------------|

E|----------------------------------------------------------|

 

GUITAR 3:

 

e|---------------------------|

B|---------------------------|

G|--8--8--8--8---8--8--8--8--|

D|--8--8--8--8---8--8--8--8--|

A|--6--6--6--6---6--6--6--6--|

E|---------------------------|

 

GUITAR 1:

 

e|---------------------------------------|----------------------------------------------------|

B|--14-b--14-b--14--12------12-----------|----------------------------------------------------|

G|----------------------12-------11--11--|--6-b-r--4-h-6-p-4--3--4--6-------------------------|

D|---------------------------------------|-------------------------------4--6--4--2--4--2--1--|

A|---------------------------------------|----------------------------------------------------|

E|---------------------------------------|----------------------------------------------------|

 

GUITAR 2:

 

e|----------------------------------------------------|----------------------------------------------------------|

B|--12--12--x--x--12--12--x--x--12--12--x--x--12--12--|--x--x--12--12--x--x--12--12--x--x--12--12--x--x--14--14--|

G|----------------------------------------------------|----------------------------------------------------------|

D|----------------------------------------------------|----------------------------------------------------------|

A|----------------------------------------------------|----------------------------------------------------------|

E|----------------------------------------------------|----------------------------------------------------------|

 

GUITAR 3:

 

e|---------------------------|---------------------------|

B|---------------------------|---------------------------|

G|---------------------------|---------------------------|

D|--6--6--6--6---6--6--6--6--|--2--2--2--2---4--4--4--4--|

A|--6--6--6--6---6--6--6--6--|--2--2--2--2---4--4--4--4--|

E|--4--4--4--4---4--4--4--4--|--0--0--0--0---2--2--2--2--|

 

 

 

Pure Pure Heart - Tron544
00:00 / 00:00

©2019 by Fefe - Tron544

Sigueme en:

  • YouTube - White Circle
  • Facebook - White Circle
  • Instagram - White Circle
  • Twitter - White Circle
This site was designed with the
.com
website builder. Create your website today.
Start Now