PRE-PARADE

TORADORA!

TABS ~ By Fefe (Tron544)

 

Intro:

 

e|------------------------------------|

B|------------------------------------|

G|--10-------10--10--10--10-h-12--12--|

D|------12----------------------------|

A|------------------------------------|

E|------------------------------------|

 

e|--------------------------------------|

B|--------------------------------------|

G|----------10--------------------------|

D|--12--12------12--12--10------10--12--|

A|--------------------------12----------|

E|--------------------------------------|

e|------------------------------------------------------------------------------|

B|------------------------------------------------------------------------------|

G|--10-------10--10--10--10-h-12--12-----------10-------------------------------|

D|------12-----------------------------12--12------12--12--10--10--10-h-12--12--|

A|------------------------------------------------------------------------------|

E|------------------------------------------------------------------------------|

 

e|------------------------------------------------------------------------------------------|

B|--13--13--13--13--13--13--13--13--13--13--13--13--13--13--13--13--13--13--13--13--13--13--|

G|------------------------------------------------------------------------------------------|

D|--10--10--10--10--10--10--10--10--10--10--10--10--10--10--10--10--10--10--10--10--10--10--|

A|------------------------------------------------------------------------------------------|

E|------------------------------------------------------------------------------------------|

 

e|--------------------------------------------------------------|

B|--13--13--13--13--13--13--13--13--13--13--13--13--13--13--13--|

G|--------------------------------------------------------------|

D|--10--10--10--10--10--10--10--10--10--10--10--10--10--10--10--|

A|--------------------------------------------------------------|

E|--------------------------------------------------------------|

 

 

Verse/Estrofa:

 

e|-----------------------------------------------------------------------------------------|

B|-----------------------------------------------------------------------------------------|

G|------------------10---------------10-----------------------10-------12--13--12--10------|

D|--10--10--12--12------12---10--12------12---10--10--12--12------12-------------------12--|

A|-----------------------------------------------------------------------------------------|

E|-----------------------------------------------------------------------------------------|

 

e|---------------------------------------------------------------------------------|

B|---------------------------------------------------------------------------------|

G|----------10---------------10-----------------------10-------12--13--12--10------|

D|--10--12------12---10--12------12---10--10--12--12------12-------------------12--|

A|---------------------------------------------------------------------------------|

E|---------------------------------------------------------------------------------|

Pre-Parade - Tron544
00:00 / 00:00
DONATE%20BUTTON%20(EN)_edited.png

Pre-Chorus/Pre-Estribillo:

 

e|---------------------------------------------------------------|

B|---------------------------------------------------------------|

G|------10--10--10-----------10--10--10--10----------------------|

D|--12--------------12---12------------------12------10--12--12--|

A|-----------------------------------------------12--------------|

E|---------------------------------------------------------------|

 

e|------------------------------------------------------------------------------------------------------|

B|------------------------------------------------------------------------------------------------------|

G|------10--10--10-----------10--10--10-----------10--12--12-/-13--12--10------12-/14--12--10--12-/-14--|

D|--12--------------12---12--------------12---12---------------------------12---------------------------|

A|------------------------------------------------------------------------------------------------------|

E|------------------------------------------------------------------------------------------------------|

 

e|------------------------------|

B|----------10--------------10--|

G|------10------10------10------|

D|--12--------------12----------|

A|------------------------------|

E|------------------------------|

 

 

Chorus/Estribillo:

 

e|--10--10-------------------------------------------10--10------------------------------------------|

B|----------13--13--10--10----------10----------10-----------13--13--10--10----------10----------10--|

G|--------------------------12--12------12--10-------------------------------12--12------12--10------|

D|---------------------------------------------------------------------------------------------------|

A|---------------------------------------------------------------------------------------------------|

E|---------------------------------------------------------------------------------------------------|

 

e|-------------------------------------------------------------------------------------------------|

B|------------------------------10--10--13--10---------------------------------10------10--13--10--|

G|----------10--10--10--12--12------------------12--10----12--10--12--10--12-------12--------------|

D|--12--12-----------------------------------------------------------------------------------------|

A|-------------------------------------------------------------------------------------------------|

E|-------------------------------------------------------------------------------------------------|

 

e|--10--10-----------------------------------------------10--10---------------------------------------------|

B|----------13--13--13--10--10----------10----------10-----------13--13--13--10--10----------10----------10-|

G|------------------------------12--12------12--10-----------------------------------12--12------12--10-----|

D|----------------------------------------------------------------------------------------------------------|

A|----------------------------------------------------------------------------------------------------------|

E|----------------------------------------------------------------------------------------------------------|

 

e|------------------------------------------------------|

B|------------------------------10--10--13--10----------|

G|----------10--10--10--12--12------------------12--10--|

D|--12--12----------------------------------------------|

A|------------------------------------------------------|

E|------------------------------------------------------|

 

e|----------------------------------------------------------------------------------------------------------|

B|----------------------------------------------------------------------------------------------------------|

G|--12--12--10--12--12-/-13--12--10---12--12--10--12--12-/-13--12--10---12--12--10--12--12-/-13--12--10-----|

D|-------------------------------------------------------------------------------------------------------12-|

A|----------------------------------------------------------------------------------------------------------|

E|----------------------------------------------------------------------------------------------------------|

 

e|----------------------------------------------------------------------------------------------------------|

B|----------------------------------------------------------------------------------------------------------|

G|--12--12--10--12--12-/-13--12--10---12--12--10--12--12-/-13--12--10---12--12--10--12--12-/-13--12--10-----|

D|-------------------------------------------------------------------------------------------------------12-|

A|----------------------------------------------------------------------------------------------------------|

E|----------------------------------------------------------------------------------------------------------|

©2015 by Fefe - Tron544

Sigueme en:

  • YouTube - White Circle
  • Facebook - White Circle
  • Instagram - White Circle
  • Twitter - White Circle
This site was designed with the
.com
website builder. Create your website today.
Start Now