PRAY

GINTAMA

TABS ~ By Fefe (Tron544)

 

Intro:

 

GUITAR 1:

 

e|--------------|--------------------------------------------------|

B|--------------|--------------------------------------------------|

G|--------------|--11----------------------------------------------|

D|--9--9--9--9--|------9--9--9--9--9--9---7-/-9--9--9--9--9--9--9--|

A|--------------|--9-----------------------------------------------|

E|--7--7--7--7--|------7--7--7--7--7--7---5-/-7--7--7--7--7--7--7--|

 

GUITAR 2:

 

e|-----------|

B|--7--------|

G|-----9--7--|

D|-----------|

A|-----------|

E|-----------|

 

GUITAR 3:

 

e|--------------------------------------------------------------------|

B|--12--12--12--12--12--12--12--12---10-/-12--12--12--12--12--12--12--|

G|--------------------------------------------------------------------|

D|--9---9---9---9---9---9---9---9----7--/-9---9---9---9---9---9---9---|

A|--------------------------------------------------------------------|

E|--------------------------------------------------------------------|

 

GUITAR 1:

 

e|-------------------------------------------------|

B|-------------------------------------------------|

G|--11---------------------7--7--7--7--9--9--9--9--|

D|------9--9--9--9--9--9---------------------------|

A|--9----------------------5--5--5--5--7--7--7--7--|

E|------7--7--7--7--7--7---------------------------|

 

GUITAR 2:

 

e|-----------|

B|-----------|

G|--7--6--7--|

D|-----------|

A|-----------|

E|-----------|

 

GUITAR 3:

 

e|-------------------------------------------------------------------|

B|--12--12--12--12--12--12--12--12---15--15--15--15--14--14--14--14--|

G|-------------------------------------------------------------------|

D|--9---9---9---9---9---9---9---9----12--12--12--12--11--11--11--11--|

A|-------------------------------------------------------------------|

E|-------------------------------------------------------------------|

 

GUITAR 1:

 

e|--------------------------------------------------|

B|--------------------------------------------------|

G|--11----------------------------------------------|

D|------9--9--9--9--9--9---7-/-9--9--9--9--9--9--9--|

A|--9-----------------------------------------------|

E|------7--7--7--7--7--7---5-/-7--7--7--7--7--7--7--|

 

GUITAR 2:

 

e|-----------|

B|--7--------|

G|-----9--7--|

D|-----------|

A|-----------|

E|-----------|

 

GUITAR 3:

 

e|--------------------------------------------------------------------|

B|--12--12--12--12--12--12--12--12---10-/-12--12--12--12--12--12--12--|

G|--------------------------------------------------------------------|

D|--9---9---9---9---9---9---9---9----7--/-9---9---9---9---9---9---9---|

A|--------------------------------------------------------------------|

E|--------------------------------------------------------------------|

 

GUITAR 1:

 

e|-------------------------------------------------|

B|-------------------------------------------------|

G|--11---------------------7--7--7--7--9--9--9--9--|

D|------9--9--9--9--9--9---------------------------|

A|--9----------------------5--5--5--5--7--7--7--7--|

E|------7--7--7--7--7--7---------------------------|

 

GUITAR 2:

 

e|---------|

B|---------|

G|--7---6--|

D|---------|

A|---------|

E|---------|

 

GUITAR 3:

 

e|-------------------------------------------------------------------|

B|--12--12--12--12--12--12--12--12---15--15--15--15--14--14--14--14--|

G|-------------------------------------------------------------------|

D|--9---9---9---9---9---9---9---9----12--12--12--12--11--11--11--11--|

A|-------------------------------------------------------------------|

E|-------------------------------------------------------------------|

 

 

Verse/Estrofa:

 

GUITAR 1:

 

e|-------------------------------------------------------------------------------------------------------|

B|-------------------------------------------------------------------------------------------------------|

G|----------------------------------------------------------------------------(7)-x--x--x----------------|

D|--(9)-x--x--x--x--x--x--x---9--x--x--9--x--x--9--9---(5)-x--x--x--x--x--x---(7)-x--x--x---(7)-x--x--x--|

A|--(9)-x--x--x--x--x--x--x---9--x--x--9--x--x--9--9---(5)-x--x--x--x--x--x---(5)-x--x--x---(7)-x--x--x--|

E|--(7)-x--x--x--x--x--x--x---7--x--x--7--x--x--7--7---(3)-x--x--x--x--x--x-----------------(5)-x--x--x--|

 

GUITAR 2:

 

e|------------------------------------------------------------|

B|-------------------------------------7--7-------------------|

G|--------6--6-h-8--------6------------------9--8--8-h-9-p-8--|

D|--9--9------------9--9-----9---9--9-------------------------|

A|------------------------------------------------------------|

E|------------------------------------------------------------|

 

GUITAR 1:

 

e|-------------------------------------------------------------------------------------------------------|

B|-------------------------------------------------------------------------------------------------------|

G|----------------------------------------------------------------------------(7)-x--x--x----------------|

D|--(9)-x--x--x--x--x--x--x---9--x--x--9--x--x--9--9---(5)-x--x--x--x--x--x---(7)-x--x--x---(7)-x--x--x--|

A|--(9)-x--x--x--x--x--x--x---9--x--x--9--x--x--9--9---(5)-x--x--x--x--x--x---(5)-x--x--x---(7)-x--x--x--|

E|--(7)-x--x--x--x--x--x--x---7--x--x--7--x--x--7--7---(3)-x--x--x--x--x--x-----------------(5)-x--x--x--|

 

GUITAR 2:

 

e|-------------------------------------------------|

B|-------------------------------------7--7--------|

G|--------6--6-h-8--------6------------------9--8--|

D|--9--9------------9--9-----9---9--9--------------|

A|-------------------------------------------------|

E|-------------------------------------------------|

 

GUITAR 1:

 

e|-------------------------------------------------------------------------------------------------------|

B|-------------------------------------------------------------------------------------------------------|

G|----------------------------------------------------------------------------(7)-x--x--x----------------|

D|--(9)-x--x--x--x--x--x--x---9--x--x--9--x--x--9--9---(5)-x--x--x--x--x--x---(7)-x--x--x---(7)-x--x--x--|

A|--(9)-x--x--x--x--x--x--x---9--x--x--9--x--x--9--9---(5)-x--x--x--x--x--x---(5)-x--x--x---(7)-x--x--x--|

E|--(7)-x--x--x--x--x--x--x---7--x--x--7--x--x--7--7---(3)-x--x--x--x--x--x-----------------(5)-x--x--x--|

 

GUITAR 2:

 

e|--------------------------------------------------------|

B|-------------------------------------7--7---------------|

G|--------6--6-h-8--------6------------------9--8--9-p-8--|

D|--9--9------------9--9-----9---9--9---------------------|

A|--------------------------------------------------------|

E|--------------------------------------------------------|

 

GUITAR 1:

 

e|-------------------------------------------------------------------------------------------------------|

B|-------------------------------------------------------------------------------------------------------|

G|----------------------------------------------------------------------------(7)-x--x--x----------------|

D|--(9)-x--x--x--x--x--x--x---9--x--x--9--x--x--9--9---(5)-x--x--x--x--x--x---(7)-x--x--x---(7)-x--x--x--|

A|--(9)-x--x--x--x--x--x--x---9--x--x--9--x--x--9--9---(5)-x--x--x--x--x--x---(5)-x--x--x---(7)-x--x--x--|

E|--(7)-x--x--x--x--x--x--x---7--x--x--7--x--x--7--7---(3)-x--x--x--x--x--x-----------------(5)-x--x--x--|

 

GUITAR 2:

 

e|----------------------------------------------|

B|-------------------------------------7--7-----|

G|--------6--6-h-8--------6------------------9--|

D|--9--9------------9--9-----9---9--9-----------|

A|----------------------------------------------|

E|----------------------------------------------|

 

 

Pre-Chorus/Pre-Estribillo:

 

GUITAR 1:

 

e|---------------------------------------------------------------------------------------------------------|

B|---------------------------------------------------------------------------------------------------------|

G|--(8)-x--x--x--x--x--x--x---(9)-x--x--x--x--x--x--x------------------------------------------------------|

D|--(8)-x--x--x--x--x--x--x---(9)-x--x--x--x--x--x--x---(9)-x--x--x--x--x--x--x---(9)-x--x--x--x--x--x--x--|

A|--(6)-x--x--x--x--x--x--x---(7)-x--x--x--x--x--x--x---(9)-x--x--x--x--x--x--x---(9)-x--x--x--x--x--x--x--|

E|------------------------------------------------------(7)-x--x--x--x--x--x--x---(7)-x--x--x--x--x--x--x--|

 

GUITAR 2:

 

e|--------------------------------------------|

B|--9--7------9--7------9--7------------------|

G|--------------------------------------6--8--|

D|--------8---------9---------7---9--9--------|

A|--------------------------------------------|

E|--------------------------------------------|

 

GUITAR 3:

 

e|-----------------|

B|-----------------|

G|-----------------|

D|--9--9--9--9--9--|

A|-----------------|

E|--7--7--7--7--7--|

 

GUITAR 1:

 

e|---------------------------------------------------------------------------------------------------------|

B|---------------------------------------------------------------------------------------------------------|

G|--(8)-x--x--x--x--x--x--x---(9)-x--x--x--x--x--x--x------------------------------------------------------|

D|--(8)-x--x--x--x--x--x--x---(9)-x--x--x--x--x--x--x---(9)-x--x--x--x--x--x--x---(9)-x--x--x--x--x--x--x--|

A|--(6)-x--x--x--x--x--x--x---(7)-x--x--x--x--x--x--x---(9)-x--x--x--x--x--x--x---(9)-x--x--x--x--x--x--x--|

E|------------------------------------------------------(7)-x--x--x--x--x--x--x---(7)-x--x--x--x--x--x--x--|

 

GUITAR 2:

 

e|--------------------------------------------|

B|--9--7------9--7------9--7------------------|

G|--------------------------------------6--8--|

D|--------8---------9---------7---9--9--------|

A|--------------------------------------------|

E|--------------------------------------------|

 

GUITAR 3:

 

e|-----------------|

B|-----------------|

G|-----------------|

D|--9--9--9--9--9--|

A|-----------------|

E|--7--7--7--7--7--|

 

GUITAR 1:

 

e|---------------------------------------------------------------------------------------------------------|

B|---------------------------------------------------------------------------------------------------------|

G|--(8)-x--x--x--x--x--x--x---(9)-x--x--x--x--x--x--x------------------------------------------------------|

D|--(8)-x--x--x--x--x--x--x---(9)-x--x--x--x--x--x--x---(9)-x--x--x--x--x--x--x---(9)-x--x--x--x--x--x--x--|

A|--(6)-x--x--x--x--x--x--x---(7)-x--x--x--x--x--x--x---(9)-x--x--x--x--x--x--x---(9)-x--x--x--x--x--x--x--|

E|------------------------------------------------------(7)-x--x--x--x--x--x--x---(7)-x--x--x--x--x--x--x--|

 

GUITAR 2:

 

e|------------------------------------------------|

B|--9--7--9--7--9--7--9--9--9--7--9--7--9--7--9---|

G|------------------------------------------------|

D|------------------------------------------------|

A|------------------------------------------------|

E|------------------------------------------------|

 

GUITAR 3:

 

e|-----------------|

B|-----------------|

G|-----------------|

D|--9--9--9--9--9--|

A|-----------------|

E|--7--7--7--7--7--|

 

GUITAR 1:

 

e|-----------------------------------------------------------------------------------------------|

B|-----------------------------------------------------------------------------------------------|

G|--(8)-x--x--x--x--x--x--x---(9)-x--x--x--x--x--x--x---(6)-x--x--x--x--x--x--x---8--8--8--8--8--|

D|--(8)-x--x--x--x--x--x--x---(9)-x--x--x--x--x--x--x---(6)-x--x--x--x--x--x--x---8--8--8--8--8--|

A|--(6)-x--x--x--x--x--x--x---(7)-x--x--x--x--x--x--x---(4)-x--x--x--x--x--x--x---6--6--6--6--6--|

E|-----------------------------------------------------------------------------------------------|

 

GUITAR 2:

 

e|---------------------------------------6-----6--6--|

B|--9--7--9--7--9--7--9--9--9--9---9--9-----9--------|

G|---------------------------------------------------|

D|---------------------------------------------------|

A|---------------------------------------------------|

E|---------------------------------------------------|

 

GUITAR 3:

 

e|-----------------------------------|

B|-----------------------------------|

G|--13--13--13--13---12--12--12--12--|

D|-----------------------------------|

A|--11--11--11--11---10--10--10--10--|

E|-----------------------------------|

Pray - Tron544
00:00 / 00:00
DONATE%20BUTTON%20(EN)_edited.png

Chorus/Estribillo:

 

GUITAR 1:

 

e|---------------------------------|

B|---------------------------------|

G|---------------------------------|

D|--6--6--6--6--6---2--2--2--2--2--|

A|--6--6--6--6--6---2--2--2--2--2--|

E|--4--4--4--4--4---0--0--0--0--0--|

 

GUITAR 2:

 

e|--6-h-7--7--7--7---7--7--6--7--------|

B|-------------------------------7-----|

G|----------------------------------9--|

D|-------------------------------------|

A|-------------------------------------|

E|-------------------------------------|

 

GUITAR 3:

 

e|-------------------------------------------------------------------|

B|-----------------------------------12--12--12--12--12--12--12--12--|

G|--13--13--13--13--13--13--13--13-----------------------------------|

D|-----------------------------------9---9---9---9---9---9---9---9---|

A|--11--11--11--11--11--11--11--11-----------------------------------|

E|-------------------------------------------------------------------|

 

GUITAR 1:

 

e|---------------------------------|

B|---------------------------------|

G|--4--4--4--4--4---11--11---9--9--|

D|--4--4--4--4--4---11--11---9--9--|

A|--2--2--2--2--2---9---9----7--7--|

E|---------------------------------|

 

GUITAR 2:

 

e|------------------|

B|-----7---9--7-----|

G|--8------------9--|

D|------------------|

A|------------------|

E|------------------|

 

GUITAR 3:

 

e|---------------------------------------------------------------|

B|---------------------------------------------------------------|

G|--11--11--11--11--11--11--11--11---11--11--11--11--9--9--9--9--|

D|---------------------------------------------------------------|

A|--9---9---9---9---9---9---9---9----9---9---9---9---7--7--7--7--|

E|---------------------------------------------------------------|

 

GUITAR 1:

 

e|---------------------------------|

B|---------------------------------|

G|---------------------------------|

D|--6--6--6--6--6---2--2--2--2--2--|

A|--6--6--6--6--6---2--2--2--2--2--|

E|--4--4--4--4--4---0--0--0--0--0--|

 

GUITAR 2:

 

e|--6-h-7--7--7--7---7--7--6--7--------|

B|-------------------------------7-----|

G|----------------------------------9--|

D|-------------------------------------|

A|-------------------------------------|

E|-------------------------------------|

 

GUITAR 3:

 

e|-------------------------------------------------------------------|

B|-----------------------------------12--12--12--12--12--12--12--12--|

G|--13--13--13--13--13--13--13--13-----------------------------------|

D|-----------------------------------9---9---9---9---9---9---9---9---|

A|--11--11--11--11--11--11--11--11-----------------------------------|

E|-------------------------------------------------------------------|

 

GUITAR 1:

 

e|---------------------------------|

B|---------------------------------|

G|--4--4--4--4--4---11--11---9--9--|

D|--4--4--4--4--4---11--11---9--9--|

A|--2--2--2--2--2---9---9----7--7--|

E|---------------------------------|

 

GUITAR 2:

 

e|------------------|

B|-----7---9--7-----|

G|--8------------9--|

D|------------------|

A|------------------|

E|------------------|

 

GUITAR 3:

 

e|---------------------------------------------------------------|

B|---------------------------------------------------------------|

G|--11--11--11--11--11--11--11--11---11--11--11--11--9--9--9--9--|

D|---------------------------------------------------------------|

A|--9---9---9---9---9---9---9---9----9---9---9---9---7--7--7--7--|

E|---------------------------------------------------------------|

 

GUITAR 1:

 

e|-----------------------------------------------------------------|

B|-----------------------------------------------------------------|

G|--8--8--8--8---9--9--9--9--9--9---6--6--6--6--6---8--8--8--8--8--|

D|--8--8--8--8---9--9--9--9--9--9---6--6--6--6--6---8--8--8--8--8--|

A|--6--6--6--6---7--7--7--7--7--7---4--4--4--4--4---6--6--6--6--6--|

E|-----------------------------------------------------------------|

 

GUITAR 2:

 

e|------6--7---6------------------6-----6--6--|

B|----------------9--7--9---9--9-----9--------|

G|--8-----------------------------------------|

D|--------------------------------------------|

A|--------------------------------------------|

E|--------------------------------------------|

 

GUITAR 3:

 

e|--------------------------------------------------9--9--9--9--9--9--9--9--11--11--11--11--11--11--11--11--|

B|----------------------------------------------------------------------------------------------------------|

G|--8--8--8--8--8--8--9--9--9--9--9--9--9--9--9--9--6--6--6--6--6--6--6--6--8---8---8---8---8---8---8---8---|

D|----------------------------------------------------------------------------------------------------------|

A|--6--6--6--6--6--6--7--7--7--7--7--7--7--7--7--7----------------------------------------------------------|

E|----------------------------------------------------------------------------------------------------------|

 

GUITAR 1:

 

e|---------------------------------|

B|---------------------------------|

G|---------------------------------|

D|--6--6--6--6--6---2--2--2--2--2--|

A|--6--6--6--6--6---2--2--2--2--2--|

E|--4--4--4--4--4---0--0--0--0--0--|

 

GUITAR 2:

 

e|--6-h-7--7--7--7---7--7--6--7--------|

B|-------------------------------7-----|

G|----------------------------------9--|

D|-------------------------------------|

A|-------------------------------------|

E|-------------------------------------|

 

GUITAR 3:

 

e|--16--16--16--16--16--16--16--16-----------------------------------|

B|-----------------------------------12--12--12--12--12--12--12--12--|

G|--13--13--13--13--13--13--13--13-----------------------------------|

D|-----------------------------------9---9---9---9---9---9---9---9---|

A|-------------------------------------------------------------------|

E|-------------------------------------------------------------------|

 

GUITAR 1:

 

e|---------------------------------|

B|---------------------------------|

G|--4--4--4--4--4---11--11---9--9--|

D|--4--4--4--4--4---11--11---9--9--|

A|--2--2--2--2--2---9---9----7--7--|

E|---------------------------------|

 

GUITAR 2:

 

e|---------------6--|

B|-----7---7--7-----|

G|--8---------------|

D|------------------|

A|------------------|

E|------------------|

 

GUITAR 3:

 

e|---------------------------------------------------------------|

B|---------------------------------------------------------------|

G|--11--11--11--11--11--11--11--11---11--11--11--11--9--9--9--9--|

D|---------------------------------------------------------------|

A|--9---9---9---9---9---9---9---9----9---9---9---9---7--7--7--7--|

E|---------------------------------------------------------------|

 

GUITAR 1:

 

e|-----------------------------------------------------------------|

B|-----------------------------------------------------------------|

G|--8--8--8--8--8---9--9--9--9--9---6--6--6--6--6---8--8--8--8--8--|

D|--8--8--8--8--8---9--9--9--9--9---6--6--6--6--6---8--8--8--8--8--|

A|--6--6--6--6--6---7--7--7--7--7---4--4--4--4--4---6--6--6--6--6--|

E|-----------------------------------------------------------------|

 

GUITAR 2:

 

e|--6-h-7--6-----6--6-h-7---7--7--6-----7--6-----6--6--|

B|------------9----------------------9--------9--------|

G|-----------------------------------------------------|

D|-----------------------------------------------------|

A|-----------------------------------------------------|

E|-----------------------------------------------------|

 

GUITAR 3:

 

e|--------------------------------------------------9--9--9--9--9--9--9--9--11--11--11--11--11--11--11--11--|

B|----------------------------------------------------------------------------------------------------------|

G|--8--8--8--8--8--8--8--8--9--9--9--9--9--9--9--9--6--6--6--6--6--6--6--6--8---8---8---8---8---8---8---8---|

D|----------------------------------------------------------------------------------------------------------|

A|--6--6--6--6--6--6--6--6--7--7--7--7--7--7--7--7----------------------------------------------------------|

E|----------------------------------------------------------------------------------------------------------|

 

GUITAR 1:

 

e|--------------------------------------|

B|--------------------------------------|

G|--9--9--9--9--9---11--11--11--11--11--|

D|--9--9--9--9--9---11--11--11--11--11--|

A|--7--7--7--7--7---9---9---9---9---9---|

E|--------------------------------------|

 

GUITAR 2:

 

e|--7--6-----7--6---6--|

B|--------9------------|

G|---------------------|

D|---------------------|

A|---------------------|

E|---------------------|

 

GUITAR 3:

 

e|-----------------------------------------------------------|

B|-----------------------------------------------------------|

G|--9--9--9--9--9--9--9--9---11--11--11--11--11--11--11--11--|

D|-----------------------------------------------------------|

A|--7--7--7--7--7--7--7--7---9---9---9---9---9---9---9---9---|

E|-----------------------------------------------------------|

 

 

Outro:

 

GUITAR 1:

 

e|--------------------------------------------------|

B|--------------------------------------------------|

G|--11----------------------------------------------|

D|------9--9--9--9--9--9---7-/-9--9--9--9--9--9--9--|

A|--9-----------------------------------------------|

E|------7--7--7--7--7--7---5-/-7--7--7--7--7--7--7--|

 

GUITAR 2:

 

e|-----------|

B|--7--------|

G|-----9--7--|

D|-----------|

A|-----------|

E|-----------|

 

GUITAR 3:

 

e|--------------------------------------------------------------------|

B|--12--12--12--12--12--12--12--12---10-/-12--12--12--12--12--12--12--|

G|--------------------------------------------------------------------|

D|--9---9---9---9---9---9---9---9----7--/-9---9---9---9---9---9---9---|

A|--------------------------------------------------------------------|

E|--------------------------------------------------------------------|

 

GUITAR 1:

 

e|-----------------------------------------------------|

B|-----------------------------------------------------|

G|--11---------------------7--7--7--7--9--9--9--9------|

D|------9--9--9--9--9--9----------------------------9--|

A|--9----------------------5--5--5--5--7--7--7--7---9--|

E|------7--7--7--7--7--7----------------------------7--|

 

GUITAR 2:

 

e|---------|

B|---------|

G|--7---6--|

D|---------|

A|---------|

E|---------|

 

GUITAR 3:

 

e|------------------------------------------------------------------------|

B|--12--12--12--12--12--12--12--12---15--15--15--15--14--14--14--14---12--|

G|------------------------------------------------------------------------|

D|--9---9---9---9---9---9---9---9----12--12--12--12--11--11--11--11---9---|

A|------------------------------------------------------------------------|

E|------------------------------------------------------------------------|

©2015 by Fefe - Tron544

Sigueme en:

  • YouTube - White Circle
  • Facebook - White Circle
  • Instagram - White Circle
  • Twitter - White Circle
This site was designed with the
.com
website builder. Create your website today.
Start Now