POLARIS

MY HERO ACADEMIA

TABS ~ By Fefe (Tron544)

 

Intro:

GUITAR (Vocals):

e|---------|-------------------------------|
B|---------|-------------8-----------------|
G|---------|----------------10--8--7--8-8--|
D|--10--8--|--10--8--10--------------------|
A|---------|-------------------------------|
E|---------|-------------------------------|

GUITAR (Rhythm):

e|--------------------------------------|
B|--------------------------------------|
G|--------------------------------------|
D|-(6)-x-x-x-x-x-x-x-(8)-x-x-x-x-x-x-x--|
A|-(6)-x-x-x-x-x-x-x-(8)-x-x-x-x-x-x-x--|
E|-(4)-x-x-x-x-x-x-x-(6)-x-x-x-x-x-x-x--|

GUITAR (Lead):

e|--10-h-11-p-10-6-h-8----------------------------|
B|----------------------8-h-11--6-h-8-------------|
G|-------------------------------------8-h-10-----|
D|---------------------------------------------8--|
A|------------------------------------------------|
E|------------------------------------------------|

GUITAR (Vocals):

e|--------------------|
B|--------------------|
G|--------------8--7--|
D|--------------------|
A|--------------------|
E|--------------------|

GUITAR (Rhythm):

e|---------------------------------------|
B|---------------------------------------|
G|--------------------(8)-x-x-x-x-x-x-x--|
D|-(10)-x-x-x-x-x-x-x-(8)-x-x-x-x-x-x-x--|
A|-(10)-x-x-x-x-x-x-x-(6)-x-x-x-x-x-x-x--|
E|-(8-)-x-x-x-x-x-x-x--------------------|

GUITAR (Lead):

e|--10-h-11-p-10-6-h-8----------------------------|
B|----------------------8-h-11--6-h-8-------------|
G|-------------------------------------8-h-10-----|
D|---------------------------------------------8--|
A|------------------------------------------------|
E|------------------------------------------------|

GUITAR (Vocals):

e|-----------------------------|
B|-------------8---------------|
G|----------------10--8--7--8--|
D|--10--8--10------------------|
A|-----------------------------|
E|-----------------------------|

GUITAR (Rhythm):

e|----------------------------------|
B|----------------------------------|
G|----------------------------------|
D|-(6)-x-x-x-x-x-x-x-(8)-x-x-x------|
A|-(6)-x-x-x-x-x-x-x-(8)-x-x-x------|
E|-(4)-x-x-x-x-x-x-x-(6)-x-x-x------|

GUITAR (Lead):

e|--10-h-11-p-10-6-h-8------------------------|
B|----------------------8-h-11--6-h-8---------|
G|-------------------------------------8------|
D|--------------------------------------------|
A|--------------------------------------------|
E|--------------------------------------------|

GUITAR (Rhythm):

e|--4-4-4-4-4-4-4-4-4-4-4-4-4-4-4-4--6-6-6-6-6-6-6-6-6-6-6-6-------|
B|--4-4-4-4-4-4-4-4-4-4-4-4-4-4-4-4--6-6-6-6-6-6-6-6-6-6-6-6-------|
G|--5-5-5-5-5-5-5-5-5-5-5-5-5-5-5-5--7-7-7-7-7-7-7-7-7-7-7-7-------|
D|--6-6-6-6-6-6-6-6-6-6-6-6-6-6-6-6--8-8-8-8-8-8-8-8-8-8-8-8-------|
A|--6-6-6-6-6-6-6-6-6-6-6-6-6-6-6-6--8-8-8-8-8-8-8-8-8-8-8-8-------|
E|--4-4-4-4-4-4-4-4-4-4-4-4-4-4-4-4--6-6-6-6-6-6-6-6-6-6-6-6-------|

GUITAR (Lead):

e|----------------------------------------------------------------|
B|--------------------------6-6-8-8-------------------------------|
G|--8-8-8-------8-8-8---------------8-8-8-----------8-8-8-8-------|
D|--------8-8-8-------8-8-8---------------8-8-8-8-8---------------|
A|----------------------------------------------------------------|
E|----------------------------------------------------------------|

BASS:

G|-----------------------------------------------------------------|
D|-----------------------------------------------------------------|
A|-----------------------------------------------------------------|
E|--4-4-4-4-4-4-4-4-4-4-4-4-4-4-4-4--6-6-6-6-6-6-6-6-6-6-6-6-------|

GUITAR (Rhythm):

e|--8--8--8--8---8---8---8---8--8--8--8--8---6-6-6-6--6--6--6--6-6-6-6-6--|
B|--8--8--8--8---8---8---8---8--8--8--8--8---6-6-6-6--6--6--6--6-6-6-6-6--|
G|--8--8--8--8---8---8---8---8--8--8--8--8---7-7-7-7--7--7--7--7-7-7-7-7--|
D|--10-10-10-10--10--10--10--10-10-10-10-10--8-8-8-8--8--8--8--8-8-8-8-8--|
A|--10-10-10-10--10--10--10--10-10-10-10-10--8-8-8-8--8--8--8--8-8-8-8-8--|
E|--8--8--8--8---8---8---8---8--8--8--8--8---6-6-6-6--6--6--6--6-6-6-6-6--|

GUITAR (Lead): *CAPO 1st FRET/CAPO 1er TRASTE*

e|--0h5h7p5-----------------0h5h7p5----------------0h5h7p5-----------------0h5h7p5-------------5--|
B|----------7-0h5h7p5-0h5h7---------7-0h5h7p5p0-7----------7-0h5h7p5-0h5h7---------7-0h5h7p5p0----|
G|------------------------------------------------------------------------------------------------|
D|------------------------------------------------------------------------------------------------|
A|------------------------------------------------------------------------------------------------|
E|------------------------------------------------------------------------------------------------|

GUITAR (Lead Harmony): *CAPO 6th FRET/CAPO 6to TRASTE*

e|--0h5h7p5-----------------0h5h7p5----------------0h5h7p5-----------------0h5h7p5-------------5--|
B|----------7-0h5h7p5-0h5h7---------7-0h5h7p5p0-7----------7-0h5h7p5-0h5h7---------7-0h5h7p5p0----|
G|------------------------------------------------------------------------------------------------|
D|------------------------------------------------------------------------------------------------|
A|------------------------------------------------------------------------------------------------|
E|------------------------------------------------------------------------------------------------|

BASS:

G|--------------------------------------------------------------------|
D|--------------------------------------------------------------------|
A|--------------------------------------------------------------------|
E|--8-8-8-8-8-8-8-8-8-8-8-8-8-8-8-8--6-6-6-6-6-6-6-6-6-6-6-6-6-6-6-6--|

GUITAR (Rhythm):

e|--4-4-4-4--4--4--4--4-4-4-4-4--6-6-6-6--6--6-7--7--7--7---7---7---|
B|--4-4-4-4--4--4--4--4-4-4-4-4--6-6-6-6--6--6-8--8--8--8---8---8---|
G|--5-5-5-5--5--5--5--5-5-5-5-5--7-7-7-7--7--7-7--7--7--7---7---7---|
D|--6-6-6-6--6--6--6--6-6-6-6-6--8-8-8-8--8--8-9--9--9--9---9---9---|
A|--6-6-6-6--6--6--6--6-6-6-6-6--8-8-8-8--8--8-10-10-10-10--10--10--|
E|--4-4-4-4--4--4--4--4-4-4-4-4--6-6-6-6--6--6-7--7--7--7---7---7---|

GUITAR (Lead): *CAPO 1st FRET/CAPO 1er TRASTE*

e|--0h5h7p5-----------------0h5h7p5----------------0h5h7p5-----------------0h5h7p5-------------5--|
B|----------7-0h5h7p5-0h5h7---------7-0h5h7p5p0-7----------7-0h5h7p5-0h5h7---------7-0h5h7p5p0----|
G|------------------------------------------------------------------------------------------------|
D|------------------------------------------------------------------------------------------------|
A|------------------------------------------------------------------------------------------------|
E|------------------------------------------------------------------------------------------------|

GUITAR (Lead Harmony): *CAPO 6th FRET/CAPO 6to TRASTE*

e|--0h5h7p5-----------------0h5h7p5----------------0h5h7p5-----------------0h5h7p5-------------5--|
B|----------7-0h5h7p5-0h5h7---------7-0h5h7p5p0-7----------7-0h5h7p5-0h5h7---------7-0h5h7p5p0----|
G|------------------------------------------------------------------------------------------------|
D|------------------------------------------------------------------------------------------------|
A|------------------------------------------------------------------------------------------------|
E|------------------------------------------------------------------------------------------------|

BASS:

G|--------------------------------------------------------------------|
D|--------------------------------------------------------------------|
A|--------------------------------------------------------------------|
E|--4-4-4-4-4-4-4-4-4-4-4-4-4-4-4-4--6-6-6-6-6-6-6-6-7-7-7-7-7-7-7-7--|

 


Verse/Estrofa:

GUITAR (Vocals):

e|------------------------------------------------|
B|------------------------------------------------|
G|------3-3-3-3-----------------------------------|
D|----------------6-5-----1/3------5-5-------3-1--|
A|---------------------6--------------------------|
E|------------------------------------------------|

GUITAR (Rhythm):

e|---------------------------------------------------------------------|
B|---------------------------------------------------------------------|
G|---------------------------------------------------------------------|
D|--10--x-x-x-x-x-x-x-x-x-x-x-x-x-x-(6)-x-x-x-x-x-x-x-x-x-x-x-x-x-x-x--|
A|--10--x-x-x-x-x-x-x-x-x-x-x-x-x-x-(6)-x-x-x-x-x-x-x-x-x-x-x-x-x-x-x--|
E|--8---x-x-x-x-x-x-x-x-x-x-x-x-x-x-(4)-x-x-x-x-x-x-x-x-x-x-x-x-x-x-x--|

BASS:

G|-----------------------------------------------------------------|
D|-----------------------------------------------------------------|
A|-----------------------------------------------------------------|
E|--8--------------------------------------------------------------|

GUITAR (Vocals):

e|--------------------------------------------------|
B|--------------------------------------------------|
G|---------------------------------3----------------|
D|------3-1-3-1-3-1-3-1-3-1--3/5-----5--------------|
A|--------------------------------------------------|
E|--------------------------------------------------|

GUITAR (Rhythm):

e|------------------------------------------------------------------------|
B|------------------------------------------------------------------------|
G|-----------------------------------(8)-x-x-x-x-x-x-x--------------------|
D|-(8)-x-x-x-x-x-x-x-x-x-x-x-x-x-x-x-(8)-x-x-x-x-x-x-x-(8)-x-x-x-8-8-8-8--|
A|-(8)-x-x-x-x-x-x-x-x-x-x-x-x-x-x-x-(6)-x-x-x-x-x-x-x-(8)-x-x-x-8-8-8-8--|
E|-(6)-x-x-x-x-x-x-x-x-x-x-x-x-x-x-x-------------------(6)-x-x-x-6-6-6-6--|

GUITAR (Vocals):

e|--------------------------------------------------|
B|--------------------------------------------------|
G|------3-3-3-3-------------------------------------|
D|----------------6-5-----1/3---5-3-----------------|
A|---------------------6--------------3-6-----3--5--|
E|--------------------------------------------------|

GUITAR (Rhythm):

e|----------------------------------------------------------------------|
B|----------------------------------------------------------------------|
G|----------------------------------------------------------------------|
D|--10--x-x-x-10-x-x-10-x-x-10-x-x-10-x-6--x-x-x-6-x-x-6-x-x-6-x-x-6-x--|
A|--10--x-x-x-10-x-x-10-x-x-10-x-x-10-x-6--x-x-x-6-x-x-6-x-x-6-x-x-6-x--|
E|--8---x-x-x-8--x-x-8--x-x-8--x-x-8--x-4--x-x-x-4-x-x-4-x-x-4-x-x-4-x--|

GUITAR (Lead):

e|--8/11-13-11-13-15--11--11-13-11-13-15-11--8/11-13-11-13-11--11--11-13-11-13-15-11--|
B|--8/11-13-11-13-15--11--11-13-11-13-15-11--8/11-13-11-13-11--11--11-13-11-13-15-11--|
G|------------------------------------------------------------------------------------|
D|------------------------------------------------------------------------------------|
A|------------------------------------------------------------------------------------|
E|------------------------------------------------------------------------------------|

BASS:

G|--------------------------------------------------------------------|
D|--------------------------------------------------------------------|
A|--------------------------------------------------------------------|
E|--8-8-8-8-8-8-8-8-8-8-8-8-8-8-8-8--4-4-4-4-4-4-4-4-4-4-4-4-4-4-4-4--|

GUITAR (Vocals):

e|--------------------------------------------------|
B|--------------------------------------------------|
G|--------------------------------------------------|
D|-----------5/6--5--3-----3----------8--7--7--8-8--|
A|--6--3--6-------------6-----6----6----------------|
E|--------------------------------------------------|

GUITAR (Rhythm):

e|--------------------------------------------------------------|
B|--------------------------------------------------------------|
G|---------------------------------8--8-8--8-8-8----------------|
D|--8--x-x-x-8-x-x-8-x-x-8-x-x-8-x-8--8-8--8-8-8-8--8-8--8-8-8--|
A|--8--x-x-x-8-x-x-8-x-x-8-x-x-8-x-6--6-6--6-6-6-8--8-8--8-8-8--|
E|--6--x-x-x-6-x-x-6-x-x-6-x-x-6-x---------------6--6-6--6-6-6--|

GUITAR (Lead):

e|--15---13---11--------11---13---11----------|
B|--15---13---11--------11---13---11----------|
G|--------------------------------------------|
D|--------------------------------------------|
A|--------------------------------------------|
E|--------------------------------------------|

BASS:

G|--------------------------------------------------------------------|
D|--------------------------------------------------------------------|
A|-----------------------------------6-6-6-6-6-6-6-6------------------|
E|--6-6-6-6-6-6-6-6-6-6-6-6-6-6-6-6------------------6-6-6-6-6-6-6-6--|

Polaris - Tron544
00:00 / 00:00
DONATE%20BUTTON%20(EN)_edited.png

Pre-Chorus/Pre-Estribillo:

GUITAR (Vocals):

e|------------------------------------------------|
B|------------------------------------------------|
G|---------8--7--5--5--------5--------------------|
D|---------------------8--8-----8--3-/-5----5-----|
A|------6--------------------------------------8--|
E|------------------------------------------------|

GUITAR (Lead):

e|--10-h-11-p-10-6-h-8----------------------------10-h-11-p-10-6-h-8------------------------|
B|----------------------8-h-11--6-h-8---------------------------------8-h-11--6-h-8---------|
G|-------------------------------------8-h-10----------------------------------------8------|
D|---------------------------------------------8--------------------------------------------|
A|------------------------------------------------------------------------------------------|
E|------------------------------------------------------------------------------------------|

BASS:

G|----------------------------------------|
D|----------------------------------------|
A|----------------------------------------|
E|--1--------3--------4--------6----------|

GUITAR (Vocals):

e|----------------------------|
B|----------------------------|
G|----------8-7--5--8---------|
D|----------------------8/10--|
A|--6----6--------------------|
E|----------------------------|

GUITAR (Rhythm):

e|--1--1-1--1-1-1-3--3-3--3-3-3-|
B|--1--1-1--1-1-1-3--3-3--3-3-3-|
G|--1--1-1--1-1-1-3--3-3--3-3-3-|
D|--3--3-3--3-3-3-5--5-5--5-5-5-|
A|--3--3-3--3-3-3-5--5-5--5-5-5-|
E|--1--1-1--1-1-1-3--3-3--3-3-3-|

GUITAR (Lead):

e|--13-13-13-11-11-11-10-10-10-8-8-8-6-6-6-6-|
B|-------------------------------------------|
G|--10-10-10-8--8--8--7--7--7--5-5-5-3-3-3-3-|
D|-------------------------------------------|
A|-------------------------------------------|
E|-------------------------------------------|

BASS:

G|----------------------------------|
D|----------------------------------|
A|----------------------------------|
E|--1-1-1-1-1-1-1-1-3-3-3-3-3-3-3-3-|

GUITAR (Vocals):

e|-----------------------------------------------------|
B|-----------------------------------------------------|
G|--8------8------8------8------8/10------------8--10--|
D|-----10-----10-----10-----10-------------------------|
A|-----------------------------------------------------|
E|-----------------------------------------------------|

GUITAR (Rhythm):

e|--4-4--4-4--4-4--4-4--4--4--1--1-1--1-1-1-3--------|
B|--4-4--4-4--4-4--4-4--4--4--2--2-2--2-2-2-3--------|
G|--5-5--5-5--5-5--5-5--5--5--3--3-3--3-3-3-4--------|
D|--6-6--6-6--6-6--6-6--6--6--3--3-3--3-3-3-3--------|
A|--6-6--6-6--6-6--6-6--6--6--1--1-1--1-1-1-5--------|
E|--4-4--4-4--4-4--4-4--4--4----------------3--------|

GUITAR (Lead):

e|---------------8-8--10-10--11--11--13-13-13-13-13-13-13-13-15--------|
B|---------------------------------------------------------------------|
G|--13-13--15-15-5-5--7--7---8---8---10-10-10-10-10-10-10-10-12--------|
D|---------------------------------------------------------------------|
A|--11-11--13-13-------------------------------------------------------|
E|---------------------------------------------------------------------|

BASS:

G|----------------------------------------------------|
D|-------------------------------------------5--------|
A|----------------------------1-1-1-8--7-6-5----------|
E|--4-4--4-4--4-4--4-4--4--4--------------------------|

 


Chorus/Estribillo:

GUITAR (Vocals):

e|----------------------------------------------------|
B|--8----8--9--8--------------------------------------|
G|----------------10--8--7-----8/10--7--8------8--10--|
D|--------------------------8-------------------------|
A|----------------------------------------------------|
E|----------------------------------------------------|

GUITAR (Rhythm):

e|--4--4-4--4-4-4-6--6-6--6-6-6-3--3-3--3-3-3-6--6-6--6-6-6--|
B|--4--4-4--4-4-4-6--6-6--6-6-6-4--4-4--4-4-4-8--8-8--8-8-8--|
G|--5--5-5--5-5-5-7--7-7--7-7-7-5--5-5--5-5-5-8--8-8--8-8-8--|
D|--6--6-6--6-6-6-8--8-8--8-8-8-5--5-5--5-5-5-8--8-8--8-8-8--|
A|--6--6-6--6-6-6-8--8-8--8-8-8-3--3-3--3-3-3-6--6-6--6-6-6--|
E|--4--4-4--4-4-4-6--6-6--6-6-6------------------------------|

GUITAR (Lead):

e|----------------------------------------------------------------|
B|----------------------------------------------------------------|
G|--5--12--10--8--5--12--10--8--5--10--8--7--8/10--10-10-8-8-8-8--|
D|----------------------------------------------------------------|
A|--3--10--8---6--3--10--8---6--3--8---6--5--6/8---8--8--6-6-6-6--|
E|----------------------------------------------------------------|

BASS:

G|-------------------------------------------------------------------|
D|-------------------------------------------------------------------|
A|----------------------------------3-3-3-3-3-3-3-3-6-6-6-6-6-6-6-6--|
E|--4-4-4-4-4-4-4-4-6-6-6-6-6-6-6-6----------------------------------|

GUITAR (Vocals):

e|----------------------------------------------------|
B|--8----8--9--8------------------------6/8-----------|
G|----------------10--8--10--10----8-----------8--10--|
D|----------------------------------------------------|
A|----------------------------------------------------|
E|----------------------------------------------------|

GUITAR (Rhythm):

e|--4--4-4--4-4-4-3--3-3--3-3-3-3--3-3--3-3-3-6--6-6--6-6-6--|
B|--4--4-4--4-4-4-3--3-3--3-3-3-4--4-4--4-4-4-8--8-8--8-8-8--|
G|--5--5-5--5-5-5-4--4-4--4-4-4-5--5-5--5-5-5-8--8-8--8-8-8--|
D|--6--6-6--6-6-6-3--3-3--3-3-3-5--5-5--5-5-5-8--8-8--8-8-8--|
A|--6--6-6--6-6-6-5--5-5--5-5-5-3--3-3--3-3-3-6--6-6--6-6-6--|
E|--4--4-4--4-4-4-3--3-3--3-3-3------------------------------|

GUITAR (Lead):

e|-------------------------------------------------------------------|
B|-------------------------------------------------------------------|
G|--5--12--10--8--5--12--10--8--5--10--8--7--10/12--12-12-10\8--8-8--|
D|-------------------------------------------------------------------|
A|--3--10--8---6--3--10--8---6--3--8---6--5--8-/10--10-10-8-\6--6-6--|
E|-------------------------------------------------------------------|

BASS:

G|-------------------------------------------------------------------|
D|-------------------------------------------------------------------|
A|----------------------------------3-3-3-3-3-3-3-3-6-6-6-6-6-6-6-6--|
E|--4-4-4-4-4-4-4-4-3-3-3-3-3-3-3-3----------------------------------|

GUITAR (Vocals):

e|----------------------------------------------------|
B|--8----8--9--8-----------------8h9--8---------------|
G|----------------10--8--10--10----------8------8--7--|
D|----------------------------------------------------|
A|----------------------------------------------------|
E|----------------------------------------------------|

GUITAR (Rhythm):

e|--4--4-4--4-4-4-6--6-6--6-6-6-3--3-3--3-3-3-3--3-3--3-3-3--|
B|--4--4-4--4-4-4-6--6-6--6-6-6-3--3-3--3-3-3-4--4-4--4-4-4--|
G|--5--5-5--5-5-5-7--7-7--7-7-7-4--4-4--4-4-4-5--5-5--5-5-5--|
D|--6--6-6--6-6-6-8--8-8--8-8-8-3--3-3--3-3-3-5--5-5--5-5-5--|
A|--6--6-6--6-6-6-8--8-8--8-8-8-5--5-5--5-5-5-3--3-3--3-3-3--|
E|--4--4-4--4-4-4-6--6-6--6-6-6-3--3-3--3-3-3----------------|

GUITAR (Lead):

e|----------------------------------------------------------------|
B|----------------------------------------------------------------|
G|--5--12--10--8--5--12--10--8--5--10--8--7--8/10--10-10-8-8-8-8--|
D|----------------------------------------------------------------|
A|--3--10--8---6--3--10--8---6--3--8---6--5--6/8---8--8--6-6-6-6--|
E|----------------------------------------------------------------|

BASS:

G|-------------------------------------------------------------------|
D|-------------------------------------------------------------------|
A|----------------------------------2-2-2-2-2-2-2-2-3-3-3-3-3-3-3-3--|
E|--4-4-4-4-4-4-4-4-6-6-6-6-6-6-6-6----------------------------------|

GUITAR (Vocals):

e|--------------------------------------------------|
B|-------------6/8----------------------------------|
G|------------------10--8--7--8-8-------------8--7--|
D|--10--8--10---------------------------------------|
A|--------------------------------------------------|
E|--------------------------------------------------|

GUITAR (Rhythm):

e|--4--4-4--4-4-4-6--6-6--6-6-6-3--3-3--3-3-3-3--3-3--3-3-3--|
B|--4--4-4--4-4-4-6--6-6--6-6-6-4--4-4--4-4-4-4--4-4--4-4-4--|
G|--5--5-5--5-5-5-7--7-7--7-7-7-5--5-5--5-5-5-5--5-5--5-5-5--|
D|--6--6-6--6-6-6-8--8-8--8-8-8-5--5-5--5-5-5-5--5-5--5-5-5--|
A|--6--6-6--6-6-6-8--8-8--8-8-8-3--3-3--3-3-3-3--3-3--3-3-3--|
E|--4--4-4--4-4-4-6--6-6--6-6-6------------------------------|

GUITAR (Lead):

e|--------------------------------------------------------------------|
B|--------------------------------------------------------------------|
G|--5--12--10--8--5--12--10--8--5--10-12--12-12-12-10-8-8-8-8--8-8-8--|
D|--------------------------------------------------------------------|
A|--3--10--8---6--3--10--8---6--3--8--10--10-10-10-8--6-6-6-6--6-6-6--|
E|--------------------------------------------------------------------|

BASS:

G|-------------------------------------------------------------------|
D|-------------------------------------------------------------------|
A|----------------------------------3-3-3-3-3-3-3-3-3-3-3-3-3-3-3-3--|
E|--4-4-4-4-4-4-4-4-6-6-6-6-6-6-6-6----------------------------------|

GUITAR (Vocals):

e|-------------------------------------------------|
B|-------------6/8---------------------------------|
G|------------------10--8--7--8--------------8--7--|
D|--10--8--10--------------------------------------|
A|-------------------------------------------------|
E|-------------------------------------------------|

GUITAR (Rhythm):

e|--4--4-4--4-4-4-6--6-6--6-6-6-3--3-3--3-3-3-3--3-3--3-3-3--|
B|--4--4-4--4-4-4-6--6-6--6-6-6-4--4-4--4-4-4-4--4-4--4-4-4--|
G|--5--5-5--5-5-5-7--7-7--7-7-7-5--5-5--5-5-5-5--5-5--5-5-5--|
D|--6--6-6--6-6-6-8--8-8--8-8-8-5--5-5--5-5-5-5--5-5--5-5-5--|
A|--6--6-6--6-6-6-8--8-8--8-8-8-3--3-3--3-3-3-3--3-3--3-3-3--|
E|--4--4-4--4-4-4-6--6-6--6-6-6------------------------------|

GUITAR (Lead):

e|--------------------------------------------------------------------|
B|--------------------------------------------------------------------|
G|--5--12--10--8--5--12--10--8--5--10-12--12-12-12-10-8-8-8-8--8-8-8--|
D|--------------------------------------------------------------------|
A|--3--10--8---6--3--10--8---6--3--8--10--10-10-10-8--6-6-6-6--6-6-6--|
E|--------------------------------------------------------------------|

BASS:

G|-------------------------------------------------------------------|
D|-------------------------------------------------------------------|
A|----------------------------------3-3-3-3-3-3-3-3-3-3-3-3-3-3-3-3--|
E|--4-4-4-4-4-4-4-4-6-6-6-6-6-6-6-6----------------------------------|

GUITAR (Vocals):

e|-----------------------------------------------------|---------------------|
B|---------------------------6/8-------------8----8----|--6-/-8--------------|
G|--------------------------------10----8--------------|---------------------|
D|--10--8--10--8--10--8--10----------------------------|---------------------|
A|-----------------------------------------------------|---------------------|
E|-----------------------------------------------------|---------------------|

GUITAR (Rhythm):

e|--1--1-1--1-1-1-1--1-1--1-1-1-1--1-1--1-1-1-3-3-3-3------|
B|--1--1-1--1-1-1-1--1-1--1-1-1-3--3-3--3-3-3-3-3-3-3------|
G|--1--1-1--1-1-1-1--1-1--1-1-1-3--3-3--3-3-3-4-4-4-4------|
D|--3--3-3--3-3-3-3--3-3--3-3-3-3--3-3--3-3-3-3-3-3-3------|
A|--3--3-3--3-3-3-3--3-3--3-3-3-1--1-1--1-1-1-5-5-5-5------|
E|--1--1-1--1-1-1-1--1-1--1-1-1---------------3-3-3-3------|

GUITAR (Lead):

e|-------------------------------------------------------------------------------------------|
B|--------------------------------------------------11-11-11-11-11-11-11-11-12-12-12-12------|
G|--10-10-10-10-10-10-10-10-12-12-12-12-12-12-12-12------------------------------------------|
D|--------------------------------------------------8--8--8--8--8--8--8--8--9--9--9--9-------|
A|--8--8--8--8--8--8--8--8--10-10-10-10-10-10-10-10------------------------------------------|
E|-------------------------------------------------------------------------------------------|

 

BASS:

G|---------------------------------------------------------------|
D|---------------------------------------------------------------|
A|----------------------------------1-1-1-1-1-1-1-1-2-2-2-2------|
E|--1-1-1-1-1-1-1-1-1-1-1-1-1-1-1-1------------------------------|

©2015 by Fefe - Tron544

Sigueme en:

  • YouTube - White Circle
  • Facebook - White Circle
  • Instagram - White Circle
  • Twitter - White Circle
This site was designed with the
.com
website builder. Create your website today.
Start Now