PHOENIX

LEAGUE OF LEGENDS

CHORDS ~ By Fefe (Tron544)

 

Chords Used/Acordes Utilizados:

Db: x.4.6.6.6.4
Ebm: x.6.8.8.7.6
Fm: 1.3.3.1.1.1   F: 1.3.3.2.1.1   F7: 1.3.1.2.1.1
Gb: 2.4.4.3.2.2
Ab: 4.6.6.5.4.4
Bbm: 6.8.8.6.6.6
%: Same as the Previous Measure/Lo Mismo que el Compas Anterior

    Bbm
e|--------------------------------------------------------------------|
B|------6-------6-------6-----9p8--------6-------6-------6-------6----|
G|--8-8-----8-8-----8-8-----8--------8-8-----8-8-----8-8-----8-8------|
D|--------8-------8-------8-------8--------6-------6-------6-------6--|
A|--------------------------------------------------------------------|
E|--------------------------------------------------------------------|

e|-------------------------------------------------------------|
B|------6-------6-------6-----9p8------------------------------|
G|--8-8-----8-8-----8-8-----8--------6-6-8---6-6-8-------------|
D|--------8-------8-------8-------8--------6-------6-----------|
A|-------------------------------------------------------------|
E|-------------------------------------------------------------|

                         Bbm
What are you willing to lose?
                                 Ab
You cover your wounds, but underneath them
          Ebm                              Ab
A million voices in your head that whisper... "Stop, now"
                      Bbm
Another twist of the knife, turn of the screws
                 Ab
It's all in your mind and it's fighting you
Ebm                             Fm
Arm yourself, a storm is coming


                             Bbm      Ab
Well, kid, what you gonna do now?
            Ebm                                F
It's your reflection looking back to pull you down

                  Gb                      Bbm
So are you gonna die today or make it out alive?
                      Ab                                   Ebm
You gotta conquer the monster in your head and then you'll fly
          Fm      Gb
Fly, Phoenix, fly
                      Bbm
It's time for a new empire
             Ab                        F7
Go bury your demons then tear down the ceiling

Phoenix, fly

    Bbm
e|-----------------------------------------------------------------|
B|------6-------6-------6-----9p8--------6-------6-------6---------|
G|--8-8-----8-8-----8-8-----8--------8-8-----8-8-----8-8-----------|
D|--------8-------8-------8-------8--------8-------8-------8-------|
A|-----------------------------------------------------------------|
E|-----------------------------------------------------------------|

                            Bbm
And now you're playing with matches
                            Ab
Come out of the ashes underneath you
          Ebm                                   Ab
A million voices in the crowd they're screaming... "Stop, now"
                            Bbm                                      Ab
We'll let 'em swallow their pride, you're turning the tide to true believers
            Ebm                                   Fm        
Got them in the palm of your hand, you're playing... God now

                  Bbm      Ab
What you gonna do now?
             Ebm                               F
It's your reflection looking back to pull you down


                  Gb                      Bbm
So are you gonna die today or make it out alive?
                      Ab                                   Ebm
You gotta conquer the monster in your head and then you'll fly
          Fm      Gb
Fly, Phoenix, fly
                      Bbm
It's time for a new empire
             Ab                        F7
Go bury your demons then tear down the ceiling

Phoenix, fly

| Bbm | % | Db | % |
| Gb | Ab | Ebm | % |
| Gb Ab | Bbm Fm | Ebm | F7 |

                  Gb                      Bbm
So are you gonna die today or make it out alive?
                      Ab                                   Ebm
You gotta conquer the monster in your head and then you'll fly
          Fm      Gb
Fly, Phoenix, fly
                      Bbm
It's time for a new empire
             Ab                        F7
Go bury your demons then tear down the ceiling
         Bbm
Phoenix, fly

 

 

Phoenix - Tron544
00:00 / 00:00
DONATE%20BUTTON%20(EN)_edited.png

©2015 by Fefe - Tron544

Sigueme en:

  • YouTube - White Circle
  • Facebook - White Circle
  • Instagram - White Circle
  • Twitter - White Circle
This site was designed with the
.com
website builder. Create your website today.
Start Now